Don't Tell Me ( cifra ) - Avril Lavigne Letras de músicas - Letra da música Don't Tell Me ( cifra )

Utilize o abecedário abaixo para abrir as páginas de letras dos artistas

0-9ABCDEFGHIJKLMNOPQRSTUVWXYZ

Don't Tell Me ( cifra ) letra

     Don't Tell Me ( cifra )

    >> Todas as letras de "Avril Lavigne"
    >> Veja todas as letras do álbum "Under My Skin"
     Don't Tell Me ( cifra )
    >> Avril Lavigne
     
        (EADGBe)

    B - 224442 or 224422
    E - x22100
    Asus2 ? x02200
    C#m - 446654

    [INTRO]

    e|----------------12-------------------------------14------12-----------------|
    B|--9---10---12----------12---10---9-----10---12------------------------------|
    G|----------------------------------------------------------------------------|
    D|----------------------------------------------------------------------------|
    A|----------------------------------------------------------------------------|
    E|----------------------------------------------------------------------------|


    [VERço]

    E Asus2 B Asus2
    You held my hand and walked me home, I know

    E Asus2 B
    Asus2
    Why you gave me the kiss, it was something like this, you made
    me go, oh oh

    E Asus2 B
    Asus2
    You wiped my tears got rid of all my fears, why did you have to
    go?

    E Asus2 B
    Asus2
    Guess it wasn't enough to take up some of my love, guys you're
    so hard to trust


    [PRE refao]

    E
    Well did I, not tell you,

    E
    That I'm not Like that girl

    E B
    The one who, gives it all away


    [refao]

    C#m Asus2 E B
    Did you think that I was gonna give it up to you, this time?

    C#m Asus2 E B
    Did you think that it was something I was gonna do, and cry

    C#m Asus2 E
    Don?t try to tell me what to do

    B E
    Don?t try to tell me what to say

    B
    Your better off that way





    B B B B? B?
    B?
    This guilt trip that you put me on, won't, mess me up I've done
    no wrong

    |----------x--x--x------------x--x---------x--x--x------------x--x--x--|
    |----------x--x--x------------x--x---------x--x--x------------x--x--x--|
    |----------x--x--x------------x--x---------x--x--x------------x--x--x--|
    |----9--9--x--x--x--9--9---9--x--x---9--9--x--x--x--9--9---9--x--x--x--|
    |----9--9--x--x--x--9--9---9--x--x---6--6--x--x--x--6--6---6--x--x--x--|
    |----7--7--x--x--x--7--7---7--x--x---------x--x--x------------x--x--x--|


    E Asus2 B C#m -
    Any thoughts of you and me have gone away

    -C#m E B

    Did you think that I was gonna give it up to you, this time?

    C#m Asus2 E B
    Did you think that it was something I was gonna do, and cry

    C#m Asus2 E
    Don?t try to tell me what to do

    B E
    Don?t try to tell me what to say

    B
    Your better off that way

    E
    (Better off That way)

    B
    I?m better off alone anyway
     

    Visualizações mensais: 98

top 50 músicas

Todas as letras e cifras são propriedade dos seus respectivos autores.
É permitido somente a visualização na tela das letras de música encontradas no Letras de Músicas,
vedada sua reprodução através de qualquer outros meios. (Lei 9610/98)
All lyrics are property and copyright of their owners. All lyrics provided for educational purposes only.