Damnit ( cifra ) - Blink 182 Letras de músicas - Letra da música Damnit ( cifra )

Utilize o abecedário abaixo para abrir as páginas de letras dos artistas

0-9ABCDEFGHIJKLMNOPQRSTUVWXYZ

Damnit ( cifra ) letra

     Damnit ( cifra )

    >> Todas as letras de "Blink 182"
    >> Veja todas as letras do álbum "Dude Ranch"
     Damnit ( cifra )
    >> Blink 182
     
        Tom: C5
    Intro:
    |----------------------------------------------------------|
    |----------------------------------------------------------|
    |----------------------------------------------------------|
    |----------------------------------------------------------|
    |---------5-5--7--------5-5--7--------5-5-7--8-8-7-7--5----|
    |---8-8------------3-3-----------5-5-----------------------|


    (C5 G5 A5 F5)
    It's alright / to tell me / what you think / about me
    I won't try / to argue / or hold it / against you
    I know that / you're leaving / you must have / your reasons
    The season / is calling / and your pictures / are falling down
    Introdução
    (C5 G5 A5 F5)
    The steps that / I retrace / a sad look / on your face
    The timing / and structure / did you hear / he fucked her?
    A day late / a buck short / I'm writing / the report
    I'm losing / and failing / when I move / I'm failing now

    G5
    And it's happened once again
    A5
    I'll turn to a friend
    F5
    Someone that understands
    C5
    Sees through the master plan
    G5
    But everybody's gone
    A5
    And I've been here for too long
    F5
    To face this on my own

    Well I guess this is growing up
    (intr.:)
    Well I guess this is growing up

    Intr.:
    (C5 G5 A5 F5)
    And maybe / I'll see you / at a movie / sneak preview
    You'll show up / and walk by / on the arm / of that guy
    And I'll smile / and you'll wave / we'll pretend / it's okay
    The charade / it won't last / when he's gone / I won't come back
    G5
    And it's happened once again
    A5
    I'll turn to a friend
    F5
    Someone that understands
    C5
    Sees through the master plan
    G5
    But everybody's gone
    A5
    And you've been here for too long
    F5
    To face this on my own

    Well I guess this is growing up
    Bridge: 2x
    |----------------------------------------------|
    |---5------------5------5-----------5----5-----|
    |-----5-0-----5---0-------5-0----5---0-5--5----|
    |----------------------------------------------|
    |----------------------------------------------|
    |----------------------------------------------|
    Well I guess this is growing up
    (intr.:)
    Well I guess this is growing up
    (intr.:)
    Well I guess this is growing up
    (intr.:)
    Well I guess this is growing up
    (intr.:)
    Well I guess this is growing up
     

    Visualizações mensais: 106

top 50 músicas

Todas as letras e cifras são propriedade dos seus respectivos autores.
É permitido somente a visualização na tela das letras de música encontradas no Letras de Músicas,
vedada sua reprodução através de qualquer outros meios. (Lei 9610/98)
All lyrics are property and copyright of their owners. All lyrics provided for educational purposes only.