Romeo & Rebecca ( cifra ) - Blink 182 Letras de músicas - Letra da música Romeo & Rebecca ( cifra )

Utilize o abecedário abaixo para abrir as páginas de letras dos artistas

0-9ABCDEFGHIJKLMNOPQRSTUVWXYZ

Romeo & Rebecca ( cifra ) letra

     Romeo & Rebecca ( cifra )

    >> Todas as letras de "Blink 182"
    >> Veja todas as letras do álbum "Buddha"
     Romeo & Rebecca ( cifra )
    >> Blink 182
     
        Tom: A
    Intro:
    e-|----------------------------------------------
    B-|----------------------------------------------
    G-|----------------------------------------------
    D-|-7-7-7-7-7-7-7-6-----------------7-7-7-7-7-7-7
    A-|-----------------7-7-7-7-7-7-7-7--------------
    E-|----------------------------------------------
    e-|----------------------------------------------
    B-|----------------------------------------------
    G-|-------7-7-7-6-6------------------------------
    D-|-6---------------7-7-7-7-7-7-7-6--------------
    A-|---7-7---------------------------7-7-7-7-7-7-7
    E-|----------------------------------------------
    e-|----------------------------------------------
    B-|----------------------------------------------
    G-|-----------------------7-7-7-6-6--------------
    D-|---7-7-7-7-7-7-7-6---------------7-7-7-6-6-6-7
    A-|-7-----------------7-7------------------------
    E-|----------------------------------------------
    e-|----------------------------------------------
    B-|----------------------------------------------
    G-|----------------------------------------------
    D-|-7-9-9-9-7-7-7-6-7-9-9-9-11-12-11-11-9-11-9-7-
    A-|----------------------------------------------
    E-|----------------------------------------------
    e-|----------------------------------------------
    B-|----------------------------------------------
    G-|----------------------------------------------
    D-|-6-7-6---7-6---7-6-----------------7-7-7-6----
    A-|-------7-----7-----7-7-7-7-7-7-7-7---------7-5
    E-|----------------------------------------------
    e-|----------------------------------------------
    B-|----------------------------------------------
    G-|----------------------------------------------
    D-|-----------7----------------------------------
    A-|-5-4-5-4-0-7-hold for a bit-------------------
    E-|-----------5----------------------------------
    (slow ballad)
    <1st Verse>
    A E
    Walking through the grass
    F# E A
    Another blade next to you from the ground
    A E
    As the wind does pass
    F# E A
    I notice as you feel the breath of my shouts
    A E
    Your words are kind
    A E A
    The kind that repeatedly say no
    A E
    But that's allright
    F# E C
    I'm older that you so i got time
    (start blazing!)

    C A
    What's that you say reach out your hand
    G F
    There's a black shadow on my wall
    C A
    And as i look into my mind
    G F
    I can see that girls are a waste of time

    <2nd Verse>
    A E
    We've all seen the bridge
    F# E A
    A broken seam and a girl on one side
    A E
    You think your words will work
    F# E A
    They only work when you lay down and close your eyes
    A E
    I thought of all the lines
    F# E A
    All the right ones used at all the wrong times
    A E
    But that's allright
    F# E C
    Depression's just a sarcastic state of mind
    repeat

    e-|---------------------------------------------
    B-|---------------------------------------------
    G-|-5-5-5-7-------------9-9-9-10-7-7-7-7-7-7----
    D-|-5-5-5-7-5-5-5-5-5-5-9-9-9-10-7-7-7-7-7-7----
    A-|-3-3-3-5-5-5-5-5-5-5-7-7-7--8-5-5-5-5-5-5----
    E-|---------3-3-3-3-3-3-------------------------
    e-|---------------------------------------------
    B-|---------------------------------------------
    G-|-5-5-5-7-------------9-9-9-10-7-7-7-7-7-7----
    D-|-5-5-5-7-5-5-5-5-5-5-9-9-9-10-7-7-7-7-7-7----
    A-|-3-3-3-5-5-5-5-5-5-5-7-7-7--8-5-5-5-5-5-5----
    E-|---------3-3-3-3-3-3-------------------------

    A B C# D
    I don't want to live alone
    A B C# D
    I don't want to live with my broken dreams of you
    A B C# D
    I don't want to live alone with my broken dreams of you
    A B C# D
    I don't want to live alone with my broken dreams of you
    A G# E hE F# E hE A G# E hE F# E hE A
     

    Visualizações mensais: 180

top 50 músicas

Todas as letras e cifras são propriedade dos seus respectivos autores.
É permitido somente a visualização na tela das letras de música encontradas no Letras de Músicas,
vedada sua reprodução através de qualquer outros meios. (Lei 9610/98)
All lyrics are property and copyright of their owners. All lyrics provided for educational purposes only.