Waggy ( cifra ) - Blink 182 Letras de músicas - Letra da música Waggy ( cifra )

Utilize o abecedário abaixo para abrir as páginas de letras dos artistas

0-9ABCDEFGHIJKLMNOPQRSTUVWXYZ

Waggy ( cifra ) letra

     Waggy ( cifra )

    >> Todas as letras de "Blink 182"
    >> Veja todas as letras do álbum "Dude Ranch"
     Waggy ( cifra )
    >> Blink 182
     
        Waggy

    Tom: A5
    Intro Riff (x2)
    |---------------|
    |---------------|
    |----7-6--7-6---|
    |----7-7--7-7---|
    |-0-------------|
    |---------------|
    Play Riff #1: (listen to the song for the exact picking)
    |------------------------------------------|
    |------------------------------------------|
    |------------------------------------------|
    |------------------------------------------|
    |---4---7---5---4---5---7---0---5---7--0---|
    |------------------------------------------| (x2)
    Intro Riff (x8)
    Watching your house shrink away in my rear-view mirror
    As I drive away
    Wishing that I could take back all those words
    That meant nothing that I didn't say
    A5
    I'm trying
    F#5 D5
    To be what you want me to be
    A5
    But it's so damn hard to keep playing the part
    F#5 D5
    Of the fool, week after week.
    CHORUS:
    F#5 D5 B5
    I think you need some time alone (I think you need some time alone)
    F#5 D5 A5
    You say you want someone to call your own
    F#5 D5 B5
    Open your eyes, you can suck in your pride
    F#5 D5
    You can live your life all on your own.

    Riff #1 (x2)

    Is this all going to be just another time
    That we play this game?
    I've tried to convince you that things could be different
    But somehow they end up the same
    A5
    But what
    F#5 D5
    Did you expect from me? What am I supposed to do?
    A5 F#5
    You say that you're starting to feel like you're getting lost
    D5
    Well, I do, too.
    F#5 D5 B5
    I don't wanna live this lie again (I don't wanna live this lie again)
    F#5 D5 A5
    I know I'll get it right but I don't know when
    F#5 D5 B5
    I'll open my eyes, I've got something in side
    F#5 D5 A5
    I'll just jerk off in my room until then.
    Riff #4
    |-------------|
    |-------------|
    |-------------|
    |-------------|
    |-0-5--0-4----|
    |-------------|


    Riff #5 (x2)
    |------------------------------------------|
    |---6---9---7---6---7---9-------7---9------|
    |---------------------------6-----------6--|
    |------------------------------------------|
    |------------------------------------------|
    |------------------------------------------|
    It's never over 'til it's done
    And I don't think that you're the one

    Intro Riff (x8)
    It's never over 'til it's done
    And I don't think that you're the one

    Intro Riff (x4)
    End with A5.
     

    Visualizações mensais: 65

top 50 músicas

Todas as letras e cifras são propriedade dos seus respectivos autores.
É permitido somente a visualização na tela das letras de música encontradas no Letras de Músicas,
vedada sua reprodução através de qualquer outros meios. (Lei 9610/98)
All lyrics are property and copyright of their owners. All lyrics provided for educational purposes only.