Corra Vagabundo ( cifra ) - Charlie Brown Jr. Letras de músicas - Letra da música Corra Vagabundo ( cifra )

Utilize o abecedário abaixo para abrir as páginas de letras dos artistas

0-9ABCDEFGHIJKLMNOPQRSTUVWXYZ

Corra Vagabundo ( cifra ) letra

     Corra Vagabundo ( cifra )

    >> Todas as letras de "Charlie Brown Jr."
     Corra Vagabundo ( cifra )
    >> Charlie Brown Jr.
     
        Tom: Eb
    Intro 1:
    Eb5 E5 C#5 Eb5 E5
    E|---------------------------------------------------------|
    B|----------9---------------------------9------------------|
    G|-5-----9-----9--6--8--9--8---------9-----9--6--8--9--8\--|
    D|----6-------------------------8--------------------------|
    A|---------------------------------------------------------|
    E|---------------------------------------------------------|
    Intro 2:
    Eb5 E5 C#5
    E|------------6------------------| |----------------|
    B|----6/8--9-----9-----6/8-------| |----------------|
    G|-8----------------9-------8/9--| |-7-7--7-7---7-7-|
    D|-------------------------------|(3x) |-7-7--7-7---7-7-|
    A|-------------------------------| |-6-6--6-6---6-6-|
    E|-------------------------------| |----------------|
    Eb5
    Corra vagabundo olha a polícia aí!
    E5
    Porque eu não quero ficar na cadeia
    C#5
    o dia inteiro a noite inteira
    Eb5 E5
    o dia passa na doideira e também passa do ponto
    C#5
    Chegamos onde deveria ser
    Eb5
    Vagabundo deitado, mão na cabeça, identidade
    E5 C#5
    Não minta não porque, se não vai ser pior pra você!
    Eb5 (Riff 1)
    Corra vagabundo olha a polícia ai!
    Eb5 (Riff 2)
    Corra vagabundo olha a polícia ai!
    (Intro 2)
    (Verso)
    (Refrão)2x
    (Intro 1)
    (Riff 3)7x
    (Eb5 E5)8x
    Riff 1:
    E|--------------|
    B|--------------|
    G|--------------|
    D|----8-~~~~~~~-|
    A|-7------------|
    E|--------------|
    Riff 2:
    E|--------------|
    B|--------------|
    G|----pr--------|
    D|----8~~~~~~\--| pr: palhetadas rápidas
    A|-7------------|
    E|--------------|
    Riff 3:
    E|--------------------|
    B|--------------------|
    G|--------------------|
    D|----------8---------|
    A|-7--6--7-----7--6---|
    E|--------------------|
     

    Visualizações mensais: 121

top 50 músicas

Todas as letras e cifras são propriedade dos seus respectivos autores.
É permitido somente a visualização na tela das letras de música encontradas no Letras de Músicas,
vedada sua reprodução através de qualquer outros meios. (Lei 9610/98)
All lyrics are property and copyright of their owners. All lyrics provided for educational purposes only.