Hoje Eu Acordei Feliz ( cifra ) - Charlie Brown Jr. Letras de músicas - Letra da música Hoje Eu Acordei Feliz ( cifra )

Utilize o abecedário abaixo para abrir as páginas de letras dos artistas

0-9ABCDEFGHIJKLMNOPQRSTUVWXYZ

Hoje Eu Acordei Feliz ( cifra ) letra

     Hoje Eu Acordei Feliz ( cifra )

    >> Todas as letras de "Charlie Brown Jr."
     Hoje Eu Acordei Feliz ( cifra )
    >> Charlie Brown Jr.
     
        Tom: D5
    Intro: Riff 1
    Riff 1
    e|----------------------------------------------------------------\
    B|------------13---------------13/15--13--------------------------|
    G|-12-------------12----10-----------------12--10--12---10--9---9-|
    D|-----10-10------------------------------------------------------|
    A|----------------------------------------------------------------|
    E|----------------------------------------------------------------/
    Riff 2
    e|-5-5----7--7-7----9---9--9-----10-9--7-5-\
    B|-5-5----7--7-7----9---9--9-----10-9--7-5-|
    G|-7-7----9--9-9----11--11-11----12-11-9-7-|
    D|-7-7----9--9-9----11--11-11----12-11-9-7-|
    A|-5-5----7--7-7----9---9--9-----10-9--7-5-|
    E|-5-5----7--7-7----9---9--9-----10-9--7-5-/
    D5 Am B5 Gm
    Hoje eu acordei para sorrir mostrar os dentes
    D5 Am B5 Gm
    Hoje eu acordei para matar o presidente
    Riff 2
    Hoje tem festa, ela vai tar eu vou
    Vai ser perfeito
    eu vou fazer o que você jamais teria feito
    D5 Gm Am
    Hoje eu acordei feliz
    D5
    Sonhei com ela a noite inteira
    Gm Am
    Eu sempre quis
    D5 Gm Am
    Hoje eu acordei feliz
    D5
    Sonhei com ela a noite inteira
    Gm Am
    Eu sempre quis
    Só não quero acordar!

    D5 Am B5 Gm
    Chegou ficou do lado não parou de olhar pra mim
    D5 Am B5 Gm
    Eu sinto lhe dizer mas sou o cara que ela é a fim
    Riff 2
    O sexo é bom o amor, melhor, os dois então perfeito
    Eu vou fazer o que você jamais teria feito
    D5 Gm Am
    Hoje eu acordei feliz
    D5
    Fiquei com ela a noite inteira
    Gm Am
    Eu sempre quis
    D5 Gm Am
    Hoje eu acordei feliz
    D5
    Fiquei com ela a noite inteira
    Gm Am
    Eu sempre quis
    Só não quero acordar!
    (_D5,Gm,Am_)
    Vocalização do Chorão
    D5 Gm Am
    Hoje eu acordei feliz
    D5
    Fiquei com ela a noite inteira
    Gm Am
    Eu sempre quis
    D5 Gm Am
    Hoje eu acordei feliz
    D5
    Fiquei com ela a noite inteira
    Gm Am
    Eu sempre quis
    Só não quero acordar!
    Riff 1 - Com algumas variações
    Chegou ficou do lado
    Já sentiu um pouco daquele efeito
    Eu vou fazer o que você jamais teria feito
    Não quero acordar...Não!
    Não quero acordar...Não!
    Não quero acordar...Não!
    Am,Am,B5,B5,C#5,C#5,D5,D5...Am...
     

    Visualizações mensais: 91

top 50 músicas

Todas as letras e cifras são propriedade dos seus respectivos autores.
É permitido somente a visualização na tela das letras de música encontradas no Letras de Músicas,
vedada sua reprodução através de qualquer outros meios. (Lei 9610/98)
All lyrics are property and copyright of their owners. All lyrics provided for educational purposes only.