Papo Reto ( cifra ) - Charlie Brown Jr. Letras de músicas - Letra da música Papo Reto ( cifra )

Utilize o abecedário abaixo para abrir as páginas de letras dos artistas

0-9ABCDEFGHIJKLMNOPQRSTUVWXYZ

Papo Reto ( cifra ) letra

     Papo Reto ( cifra )

    >> Todas as letras de "Charlie Brown Jr."
    >> Veja todas as letras do álbum "Bocas Ordinárias"
     Papo Reto ( cifra )
    >> Charlie Brown Jr.
     
        Tom: F#
    Intro: 4x
    E---------------------------------------
    B---------------------------------------
    G--6-6--4-4---------3-4-4-4-3-4-4-------
    D--6-6--4-4--4-4-4--3-4-4-4-3-4-4-------
    A--4-4--2-2--4-4-4--1-2-2-2-1-2-2-------
    E------------2-2-2----------------------
    Otário eu vou te avisar...(3x)
    E---------------------------------------
    B---------------------------------------
    G---------------6-6-4-4-4--3--4-4-4--3--
    D--4-4-4-4-4-4--6-6-4-4-4--3--4-4-4--3--
    A--4-4-4-4-4-4--4-4-2-2-2--1--2-2-2--1--
    E--2-2-2-2-2-2--------------------------
    Final
    E-------------------------------
    B-------------------------------
    G---------------------------4---
    D--4-4-4-4-4-4-4-4-4-4-4-4--4---
    A--4-4-4-4-4-4-4-4-4-4-4-4--2---
    E--2-2-2-2-2-2-2-2-2-2-2-2------
    Verso (ver tablatura):
    F# C# D#m
    Voce deixou ela de lado pra falar com seus amigos
    B F# C#
    sobre suas coisas chatas. Ela deu brecha eu me aproximei
    D#m B
    porque eu me fortaleço é na sua falha
    F# C# D#m B
    Ela estava ali sozinha querendo atenção e alguém pra conversar
    F# C# D#m B
    Voce deixou ela de lado vai pagar pela mancada pode acreditar

    Refrão:
    F# C#
    Então, Já era,
    D#m B F# C# D#m B
    eu vou fazer de um jeito que ela não vai esquecer
    F#
    Se for já era
    D#m B F# C# D#m B
    eu vou fazer de um jeito que ela não vai esquecer

    Repete( Otário eu vou te avisar...)
    Muda o final
    E-----------------------------
    B---------------------7---7---
    G---------------------6---6---
    D--4-4-4-4-4-4-4-4--4-4-4-4---
    A--4-4-4-4-4-4-4-4--4---4-----
    E--2-2-2-2-2-2-2-2--2---2-----

    Verso 2:
    F# C#
    Voce falou pra ela que eu sou louco e canto mal,
    D#m B
    que eu não presto que eu sou um marginal.
    F# C#
    Que eu não tenho educação que eu só falo palavrão
    D#m B
    Que pra socialite eu não tenho vocação
    F# C# D#m B
    Sei que isso tudo é verdade mas eu quero que se exploda essa porra de sociedade
    F# C# D#m B
    Pago minhas contas, sou limpinho, não sou como voce filho da sua viadinho então

    Repete refrão 2x
    Uh!
    Mexeu com a família, agora se vira,
    segura a seqüência, essa é minha quadrilha!
    Charlie Brown, Charlie Brown, Charlie Brown.Uh! Uh!

    E---------------------------------------
    B---------------------------------------
    G---------------6-6-4-4-4--3--4-4-4--3--
    D--4-4-4-4-4-4--6-6-4-4-4--3--4-4-4--3--
    A--4-4-4-4-4-4--4-4-2-2-2--1--2-2-2--1--
    E--2-2-2-2-2-2--------------------------
    Final do verso:
    E-----------------------------
    B---------------------7---7---
    G---------------------6---6---
    D--4-4-4-4-4-4-4-4--4-4-4-4---
    A--4-4-4-4-4-4-4-4--4---4-----
    E--2-2-2-2-2-2-2-2--2---2-----
    Solo 2x:
    E-------------------------------------------------------------------9--------------------
    B--11----11----11----11-9----9----12-11----11----11----11-9----9------11----9-11----9-11-
    G-----11----11----11------11---11-------11----11----11------11---11------11------11------
    D----------------------------------------------------------------------------------------
    A----------------------------------------------------------------------------------------
    E----------------------------------------------------------------------------------------
    E----------------------------------
    B-----12-11----12-11----9-11-------
    G--11-------11-------11------------
    D----------------------------------
    A----------------------------------
    E----------------------------------
    Repete o primeiro verso
    2x refrão
    Antes do (se não quiser ficar só...)
    E------------------------------
    B--7--7--7--7--7--7--7--7------
    G--6--6--6--6--6--6--6--6------
    D--4--4--4--4--4--4--4--4------
    A------------------------------
    E------------------------------
    Se não quiser ficar só cuide dela bem melhor
    E----------------------------------------------------------
    B--11----9----11----11p12----11----9----12/14----12/14-----
    G-----11---11----11-------11----11---11-------11-------11--
    D----------------------------------------------------------
    A----------------------------------------------------------
    E----------------------------------------------------------
    Ou vai ficar só o pó, ou vai ficar só o pó
    E---------------------------------------------9-------9-
    B--11----9----11----11p12----11----9--------------------
    G-----11---11----11-------11----11---11-10h11---10h11---
    D-------------------------------------------------------
    A-------------------------------------------------------
    E-------------------------------------------------------
    Ferro na boneca, pedrada na vidraça, tudo o que eu tenho eu conquistei na raça
    E-------9-------9-------9-------9-------9/11-9---------------
    B----------------------------------------------12p14p12-11---
    G----11------11------11------11------11----------------------
    D------------------------------------------------------------
    A--9-------9-------9-------9-------9-------------------------
    E------------------------------------------------------------
    Eu não sou simpático a ninguém, hoje eu vou de limosine mas eu já andrei de trem
    E-------9-------9-------9-------9-------9------------------------------
    B-----------------------------------------11/12-11-11/-12-12-11-9--7---
    G----11------11------11------11------11------------10/-11-11-10-8--6---
    D--------------------------------------------------8-/-9--9--8--6--4---
    A--9-------9-------9-------9-------9-----------------------------------
    E----------------------------------------------------------------------
    Tablatura para o primeiro e o segundo verso
    E-----------------------------------------------------------------
    B-----------------------------------------------------------------
    G-----------------------------------------------------------------
    D------------------------------3-4-1-1-1-1-1-1-3-4----------------
    A--------------1-2-4-4-4-4-4-4---------------------2-2-2-2-2-2-1--
    E--2-2-2-2-2-2----------------------------------------------------
    E------------------------------------------------------------------
    B------------------------------------------------------6/-7-7------
    G------------------------------------------------------5/-6-6------
    D------------------------------3-4-1-1-1-1-1-1-1-3h4p3-3/-4-4------
    A--------------1-2-4-4-4-4-4-4-------------------------------------
    E--2-2-2-2-2-2-----------------------------------------------------
    E--------------------------------------------------------------------
    B------------------------------------------------------------2-------
    G----------------------------------------------1-3-4-4-4-4-4-3h4p3-1-
    D------------------------------3-4-1-1-1-1-1-1-----------------------
    A--------------1-2-4-4-4-4-4-4---------------------------------------
    E--2-2-2-2-2-2-------------------------------------------------------
    E--------------------------------------------------------------------
    B--------------------------------------------------6/-7-7-7-7-7------
    G----------------------------------------------1-3-5/-6-6-6-6-6------
    D------------------------------3-4-1-1-1-1-1-1-----3/-4-4-4-4-4------
    A--------------1-2-4-4-4-4-4-4---------------------------------------
    E--2-2-2-2-2-2-------------------------------------------------------
     

    Visualizações mensais: 110

top 50 músicas

Todas as letras e cifras são propriedade dos seus respectivos autores.
É permitido somente a visualização na tela das letras de música encontradas no Letras de Músicas,
vedada sua reprodução através de qualquer outros meios. (Lei 9610/98)
All lyrics are property and copyright of their owners. All lyrics provided for educational purposes only.