Hello ( cifra ) - Evanescence Letras de músicas - Letra da música Hello ( cifra )

Utilize o abecedário abaixo para abrir as páginas de letras dos artistas

0-9ABCDEFGHIJKLMNOPQRSTUVWXYZ

Hello ( cifra ) letra

     Hello ( cifra )

    >> Todas as letras de "Evanescence"
    >> Veja todas as letras do álbum "Fallen"
     Hello ( cifra )
    >> Evanescence
     
        Piano




    Bm7
    E||--------------------------|----------------------|-------------------------|
    B||---------3-----3----2-----|--2--------------2----|--------3-----3-----2----|
    G||*-------------------------|-------2----2---------|-------------------------|
    D||*-----4-----4----------4--|----------------------|-----4-----4-----4-------|
    A||---2----------------------|----------------------|--2----------------------|
    E||--------------------------|----------------------|-------------------------|


    A
    ----------------------|-------------------------|---------------------|
    --2--------------2----|--------------2----------|--0------------------|
    -------2----2---------|--------2----------------|------------2--------|
    ----------------------|-----2-----2-----2----2--|---------2-----------|
    ----------------------|--0----------------------|---------------------|
    ----------------------|-------------------------|---------------------|


    F#m Bm7
    --------------------------|------------------------|-------------------------|
    --------------2-----------|--3----2----2--0-----2--|--------3-----3----2-----|
    --------------------2-----|------------------2-----|-------------------------|
    --------4--------4-----4--|------------------------|-----4-----4----------4--|
    -----4-----4--------------|------------------------|--2----------------------|
    --2-----------------------|------------------------|-------------------------|



    ----------------------|-------------------------|----------------------|
    --2--------------2----|--------3-----3-----2----|--2--------------2----|
    -------2----2---------|-------------------------|-------2----2---------|
    ----------------------|-----4-----4-----4-------|----------------------|
    ----------------------|--2----------------------|----------------------|
    ----------------------|-------------------------|----------------------|


    A F#m
    -------------------------|---------------------|--------------------------|
    --------------2----------|--0------------------|--------------2-----------|
    --------2----------------|------------2--------|--------------------2-----|
    -----2-----2-----2----2--|---------2-----------|--------4--------4-----4--|
    --0----------------------|---------------------|-----4-----4--------------|
    -------------------------|---------------------|--2-----------------------|



    ------------------------|-------------------------|----------------------|
    --3----2----2--0-----2--|--------3-----3----2-----|--2--------------2----|
    ------------------2-----|-------------------------|-------2----2---------|
    ------------------------|-----4-----4----------4--|----------------------|
    ------------------------|--2----------------------|----------------------|
    ------------------------|-------------------------|----------------------|



    -------------------------|----------------------|-------------------------|
    --------3-----3-----2----|--2--------------2----|--------------2----------|
    -------------------------|-------2----2---------|--------2----------------|
    -----4-----4-----4-------|----------------------|-----2-----2-----2----2--|
    --2----------------------|----------------------|--0----------------------|
    -------------------------|----------------------|-------------------------|



    ---------------------|--------------------------|------------------------|
    --0------------------|--------------2-----------|--3----2----2--0-----2--|
    ------------2--------|--------------------2-----|------------------2-----|
    ---------2-----------|--------4--------4-----4--|------------------------|
    ---------------------|-----4-----4--------------|------------------------|
    ---------------------|--2-----------------------|------------------------|


    G D F#
    -------------------------|----------------------|------------------------|
    --0-----------0----------|--2---------3---------|--2---------------------|
    --------0----------------|----------------------|--------------3---------|
    -----0-----0-----0----0--|---------0---------0--|--------4---------------|
    -------------------------|----------------------|-----4-----4-----4------|
    --3----------------------|----------------------|--2---------------------|


    Fsus4 Bm Bsus2
    ------------------------|--------------------------|--------------2---------|
    -------------2----------|--3-----0-----0--2--3-----|--2-----0---------------|
    --4---------------------|--------------------------|------------------------|
    ------------------------|-----4-----4-----------4--|-----4-----4---------4--|
    -----4----4-----4----4--|--2-----------------------|--2---------------------|
    ------------------------|--------------------------|------------------------|


    Bm/A Bsus2/A G
    -------------------------|--------------2---------|-----------------------|
    --3----------0--2--3-----|--2-----0---------------|--0-----------0--------|
    -------------------------|------------------------|--------0--------------|
    -----4----4-----------4--|-----4-----4-------4----|-----0-----0-----------|
    --0----------------------|--0---------------------|-----------------------|
    -------------------------|------------------------|--3--------------------|


    D G
    -----------------------|--------------------|--------------------|
    --2---------3----------|-----------0--------|--2--------3--------|
    -----------------------|--0-----------------|--------------------|
    ---------0-------------|--------------------|--------------------|
    -----------------------|--------------------|--------------------|
    -----------------3--2--|--------------------|--------------------|


    Fsus4 F#
    --------------------|--------------------|-------------------|
    --2-----------------|--0-----------------|-------------------|
    --------------------|--------------------|--3----------------|
    --------------------|-----------4--------|--4----------------|
    ---------------4----|--------------------|-------------------|
    --2-----------------|--------------------|-------------------|


    Bm7
    ------------------|-------------------------|----------------------|
    ------------------|--------3-----3----2-----|--2--------------2----|
    ------------------|-------------------------|-------2----2---------|
    ------------------|-----4-----4----------4--|----------------------|
    ------------------|--2----------------------|----------------------|
    ------------------|-------------------------|----------------------|


    Bm7
    -------------------------|----------------------|-------------------------|
    --------3-----3-----2----|--2--------------2----|--------3-----3----2-----|
    -------------------------|-------2----2---------|-------------------------|
    -----4-----4-----4-------|----------------------|-----4-----4----------4--|
    --2----------------------|----------------------|--2----------------------|
    -------------------------|----------------------|-------------------------|



    ----------------------|-------------------------|----------------------|
    --2--------------2----|--------3-----3-----2----|--2--------------2----|
    -------2----2---------|-------------------------|-------2----2---------|
    ----------------------|-----4-----4-----4-------|----------------------|
    ----------------------|--2----------------------|----------------------|
    ----------------------|-------------------------|----------------------|


    A F#m
    -------------------------|---------------------|--------------------------|
    --------------2----------|--0------------------|--------------2-----------|
    --------2----------------|------------2--------|--------------------2-----|
    -----2-----2-----2----2--|---------2-----------|--------4--------4-----4--|
    --0----------------------|---------------------|-----4-----4--------------|
    -------------------------|---------------------|--2-----------------------|


    Bm7
    ------------------------|-------------------------|----------------------|
    --3----2----2--0-----2--|--------3-----3----2-----|--2--------------2----|
    ------------------2-----|-------------------------|-------2----2---------|
    ------------------------|-----4-----4----------4--|----------------------|
    ------------------------|--2----------------------|----------------------|
    ------------------------|-------------------------|----------------------|


    A
    -------------------------|----------------------|-------------------------|
    --------3-----3-----2----|--2--------------2----|--------------2----------|
    -------------------------|-------2----2---------|--------2----------------|
    -----4-----4-----4-------|----------------------|-----2-----2-----2----2--|
    --2----------------------|----------------------|--0----------------------|
    -------------------------|----------------------|-------------------------|


    F#m
    ---------------------|--------------------------|------------------------|
    --0------------------|--------------2-----------|--3----2----2--0-----2--|
    ------------2--------|--------------------2-----|------------------2-----|
    ---------2-----------|--------4--------4-----4--|------------------------|
    ---------------------|-----4-----4--------------|------------------------|
    ---------------------|--2-----------------------|------------------------|


    G D F#
    -------------------------|----------------------|------------------------|
    --0-----------0----------|--2---------3---------|--2---------------------|
    --------0----------------|----------------------|--------------3---------|
    -----0-----0-----0----0--|---------0---------0--|--------4---------------|
    -------------------------|----------------------|-----4-----4-----4------|
    --3----------------------|----------------------|--2---------------------|


    Fsus4 Bm Bsus2
    ------------------------|--------------------------|--------------2---------|
    -------------2----------|--3-----0-----0--2--3-----|--2-----0---------------|
    --4---------------------|--------------------------|------------------------|
    ------------------------|-----4-----4-----------4--|-----4-----4---------4--|
    -----4----4-----4----4--|--2-----------------------|--2---------------------|
    ------------------------|--------------------------|------------------------|


    Bm/A Bsus2/A G
    -------------------------|--------------2---------|-----------------------|
    --3----------0--2--3-----|--2-----0---------------|--0-----------0--------|
    -------------------------|------------------------|--------0--------------|
    -----4----4-----------4--|-----4-----4-------4----|-----0-----0-----------|
    --0----------------------|--0---------------------|-----------------------|
    -------------------------|------------------------|--3--------------------|


    D G
    -----------------------|--------------------|--------------------|
    --2---------3----------|-----------0--------|--2--------3--------|
    -----------------------|--0-----------------|--------------------|
    ---------0-------------|--------------------|--------------------|
    -----------------------|--------------------|--------------------|
    -----------------3--2--|--------------------|--------------------|


    Fsus4 F#
    --------------------|--------------------|-------------------|
    --2-----------------|--0-----------------|-------------------|
    --------------------|--------------------|--3----------------|
    --------------------|-----------4--------|--4----------------|
    ---------------4----|--------------------|-------------------|
    --2-----------------|--------------------|-------------------|


    Bm7
    ------------------|-------------------------|----------------------|
    ------------------|--------3-----3----2-----|--2--------------2----|
    ------------------|-------------------------|-------2----2---------|
    ------------------|-----4-----4----------4--|----------------------|
    ------------------|--2----------------------|----------------------|
    ------------------|-------------------------|----------------------|


    A
    -------------------------|----------------------|-------------------------|
    --------3-----3-----2----|--2--------------2----|--------------2----------|
    -------------------------|-------2----2---------|--------2----------------|
    -----4-----4-----4-------|----------------------|-----2-----2-----2----2--|
    --2----------------------|----------------------|--0----------------------|
    -------------------------|----------------------|-------------------------|


    F#m
    ---------------------|--------------------------|------------------------|
    --0------------------|--------------2-----------|--3----2----2--0-----2--|
    ------------2--------|--------------------2-----|------------------2-----|
    ---------2-----------|--------4--------4-----4--|------------------------|
    ---------------------|-----4-----4--------------|------------------------|
    ---------------------|--2-----------------------|------------------------|


    Bm7
    -------------------------|----------------------|-------------------------|
    --------3-----3----2-----|--2--------------2----|--------3-----3-----2----|
    -------------------------|-------2----2---------|-------------------------|
    -----4-----4----------4--|----------------------|-----4-----4-----4-------|
    --2----------------------|----------------------|--2----------------------|
    -------------------------|----------------------|-------------------------|


    A
    ----------------------|-------------------------|---------------------|
    --2--------------2----|--------------2----------|--0------------------|
    -------2----2---------|--------2----------------|------------2--------|
    ----------------------|-----2-----2-----2----2--|---------2-----------|
    ----------------------|--0----------------------|---------------------|
    ----------------------|-------------------------|---------------------|


    F#m G
    --------------------------|------------------------|-------------------------|
    --------------2-----------|--3----2----2--0-----2--|--0-----------0----------|
    --------------------2-----|------------------2-----|--------0----------------|
    --------4--------4-----4--|------------------------|-----0-----0-----0----0--|
    -----4-----4--------------|------------------------|-------------------------|
    --2-----------------------|------------------------|--3----------------------|


    D F# Fsus4
    ----------------------|------------------------|------------------------|
    --2---------3---------|--2---------------------|-------------2----------|
    ----------------------|--------------3---------|--4---------------------|
    ---------0---------0--|--------4---------------|------------------------|
    ----------------------|-----4-----4-----4------|-----4----4-----4----4--|
    ----------------------|--2---------------------|------------------------|


    Bm Bsus2 Bm/A
    --------------------------|--------------2---------|-------------------------|
    --3-----0-----0--2--3-----|--2-----0---------------|--3----------0--2--3-----|
    --------------------------|------------------------|-------------------------|
    -----4-----4-----------4--|-----4-----4---------4--|-----4----4-----------4--|
    --2-----------------------|--2---------------------|--0----------------------|
    --------------------------|------------------------|-------------------------|


    Bsus2/A G D
    --------------2---------|-----------------------|-----------------------|
    --2-----0---------------|--0-----------0--------|--2---------3----------|
    ------------------------|--------0--------------|-----------------------|
    -----4-----4-------4----|-----0-----0-----------|---------0-------------|
    --0---------------------|-----------------------|-----------------------|
    ------------------------|--3--------------------|-----------------3--2--|


    G Fsus4
    --------------------|--------------------|--------------------|
    -----------0--------|--2--------3--------|--2-----------------|
    --0-----------------|--------------------|--------------------|
    --------------------|--------------------|--------------------|
    --------------------|--------------------|---------------4----|
    --------------------|--------------------|--2-----------------|


    F#
    --------------------|-------------------|------------------|
    --0-----------------|-------------------|------------------|
    --------------------|--3----------------|------------------|
    -----------4--------|--4----------------|------------------|
    --------------------|-------------------|------------------|
    --------------------|-------------------|------------------|



    -------------------------|----------------------|-------------------------|
    --------3-----3----2-----|--2--------------2----|--------3-----3-----2----|
    -------------------------|-------2----2---------|-------------------------|
    -----4-----4----------4--|----------------------|-----4-----4-----4-------|
    --2----------------------|----------------------|--2----------------------|
    -------------------------|----------------------|-------------------------|



    ----------------------|-------------------------|----------------------|
    --2--------------2----|--------3-----3----2-----|--2--------------2----|
    -------2----2---------|-------------------------|-------2----2---------|
    ----------------------|-----4-----4----------4--|----------------------|
    ----------------------|--2----------------------|----------------------|
    ----------------------|-------------------------|----------------------|



    -------------------------|----------------------|------||
    --------3-----3-----2----|--2--------------2----|------||
    -------------------------|-------2----2---------|------||
    -----4-----4-----4-------|----------------------|------||
    --2----------------------|----------------------|------||
    -------------------------|----------------------|------||
     

    Visualizações mensais: 118

top 50 músicas

Todas as letras e cifras são propriedade dos seus respectivos autores.
É permitido somente a visualização na tela das letras de música encontradas no Letras de Músicas,
vedada sua reprodução através de qualquer outros meios. (Lei 9610/98)
All lyrics are property and copyright of their owners. All lyrics provided for educational purposes only.