Chinese Democracy ( cifra ) - Guns N' Roses Letras de músicas - Letra da música Chinese Democracy ( cifra )

Utilize o abecedário abaixo para abrir as páginas de letras dos artistas

0-9ABCDEFGHIJKLMNOPQRSTUVWXYZ

Chinese Democracy ( cifra ) letra

     Chinese Democracy ( cifra )

    >> Todas as letras de "Guns N' Roses"
     Chinese Democracy ( cifra )
    >> Guns N' Roses
     
        INTRO - D# F# G# A |_ A Introdução e boa parte da música é assim:
    D# F# G# G# |

    D# F# G# A D# F# G# G#
    E -------------------------------------------------------------------------------|
    B -------------------------------------------------------------------------------|
    G --8-8---11-11---13-13-13---14-14-------8-8---11-11---13-13-13-13-13-13-13-13---|
    D --8-8---11-11---13-13-13---14-14-------8-8---11-11---13-13-13-13-13-13-13-13---|
    A --6-6---9--9----11-11-11---12-12-------6-6---9--9----11-11-11-11-11-11-11-11---|
    E -------------------------------------------------------------------------------|


    D# F# G# A |
    It don’t really matter |
    D# F# G# G# |
    You’ll find out for yourself |
    D# F# G# A |
    No it don’t really matter |
    D# F# G# |
    You’re gonna leave this thing to |
    G# |
    Somebody else |

    You think we’re missionaries
    Real time visionaries
    Sitting in the Chinese stew???
    To view my dis-infatu-ation
    I know that I’m a classic case
    Watch my disenchanted face
    Blame it on the Falun Gong
    It’s to the end and it can’t hold on now

    Cause it would take a lot more hate than you
    To stop from fascination
    Even with an iron fist
    Our baby got to rule the nation but all I got is
    Precious time

    It don’t really matter
    You’re gonna find out for yourself
    No it don’t really matter
    I guess you’ll do this thing to
    Somebody else

    Cause it would take a lot more time than you
    I've got more masturbation????
    Even with an iron fist
    Our baby got to rule the nation but all I got is
    Precious time
    Our baby got to rule the nation but all I got is
    Precious time

    It don’t really matter
    Gonna keep it to myself
    No it don’t really matter
    So you can hear it now from
    Somebody else

    You think you got it all locked up inside
    And if you beat them enough, they'll die
    And then you'll walk them home to their cell
    Then now you'll dig from your row back in hell
    And if ???????????
    As if your eyes were your ass you can tell
    In another time

    Solo:

    E -18-16-15-16~~---16-16-15--15-----------------18-16-15-15-16-15-------|
    B -------------------------15--15--17-17-15-----------------------14-14-|
    G ----------------------------------------------------------------------|
    D ----------------------------------------------------------------------|
    A ----------------------------------------------------------------------|
    E ----------------------------------------------------------------------|

    E -14/15-17b-15-----21------21--21-22b----------------------------------|
    B --------------------18--18--18----------------------------------------|
    G ----------------------18----------------------------------------------|
    D ----------------------------------------------------------------------|
    A ----------------------------------------------------------------------|
    E ----------------------------------------------------------------------|
     

    Visualizações mensais: 179

top 50 músicas

Todas as letras e cifras são propriedade dos seus respectivos autores.
É permitido somente a visualização na tela das letras de música encontradas no Letras de Músicas,
vedada sua reprodução através de qualquer outros meios. (Lei 9610/98)
All lyrics are property and copyright of their owners. All lyrics provided for educational purposes only.