Sweet Child O' Mine ( cifra ) - Guns N' Roses Letras de músicas - Letra da música Sweet Child O' Mine ( cifra )

Utilize o abecedário abaixo para abrir as páginas de letras dos artistas

0-9ABCDEFGHIJKLMNOPQRSTUVWXYZ

Sweet Child O' Mine ( cifra ) letra

     Sweet Child O' Mine ( cifra )

    >> Todas as letras de "Guns N' Roses"
    >> Veja todas as letras do álbum "Appetite For Destruction"
     Sweet Child O' Mine ( cifra )
    >> Guns N' Roses
     
        Afinação: 1/2 tom abaixo (Eb)

    Intro:
    : = Repete 1x

    Riff Introdução:
    D D
    e|--------------15----14-----|--------------15----14-----|
    B|-----15--------------------|-----15--------------------|
    G|:-------14-12----14----14-:|:-------14-12----14----14-:|
    D|--12-----------------------|--12-----------------------|
    A|---------------------------|---------------------------|
    E|---------------------------|---------------------------|

    C C
    e|--------------15----14-----|--------------15----14-----|
    B|-----15--------------------|-----15--------------------|
    G|:-------14-12----14----14-:|:-------14-12----14----14-:|
    D|--14-----------------------|--14-----------------------|
    A|---------------------------|---------------------------|
    E|---------------------------|---------------------------|


    G G
    e|--------------15----14-----|--------------15----14-----|
    B|-----15--------------------|-----15--------------------|
    G|:-12----14-12----14----14-:|:-12----14-12----14----14-:|
    D|---------------------------|---------------------------|
    A|---------------------------|---------------------------|
    E|---------------------------|---------------------------|


    D D
    e|--------------15----14-----|--------------15----14-----|
    B|-----15--------------------|-----15--------------------|
    G|:-------14-12----14----14-:|:-------14-12----14----14-:| <=== 2 X (duas vezes)
    D|--12-----------------------|--12-----------------------|
    A|---------------------------|---------------------------|
    E|---------------------------|---------------------------|


    C C
    e|--------------15----14-----|--------------15----14-----|
    B|-----15--------------------|-----15--------------------|
    G|:-------14-12----14----14-:|:-------14-12----14----14-:|
    D|--14-----------------------|--14-----------------------|
    A|---------------------------|---------------------------|
    E|---------------------------|---------------------------|


    G G
    e|--------------15----14-----|--------------15----14-----|
    B|-----15--------------------|-----15--------------------|
    G|:-12----14-12----14----14-:|:-12----14-12----14----14-:|
    D|---------------------------|---------------------------|
    A|---------------------------|---------------------------|
    E|---------------------------|---------------------------|


    D D
    e|--------------15----14-----|--------------15----14-----|
    B|-----15--------------------|-----15--------------------|
    G|:-------14-12----14----14-:|:-------14-12----14----14-:| <=== 2 X (duas vezes)
    D|--12-----------------------|--12-----------------------|
    A|---------------------------|---------------------------|
    E|---------------------------|---------------------------|

    C C
    e|--------------15----14-----|--------------15----14-----|
    B|-----15--------------------|-----15--------------------|
    G|:-------14-12----14----14-:|:-------14-12----14----14-:|
    D|--14-----------------------|--14-----------------------|
    A|---------------------------|---------------------------|
    E|---------------------------|---------------------------|


    G G
    e|--------------15----14-----|--------------15----14-----|
    B|-----15--------------------|-----15--------------------|
    G|:-12----14-12----14----14-:|:-12----14-12----14----14-:|
    D|---------------------------|---------------------------|
    A|---------------------------|---------------------------|
    E|---------------------------|---------------------------|

    Final da Introdução:
    E|--12------------12----14---|--15----14----12---------------14---|
    B|---------15----------------|---------------------15--------15---|
    G|-----14------14----14---14-|-----14----14----14------14----14---|
    D|---------------------------|------------------------------------|
    A|---------------------------|------------------------------------|
    E|---------------------------|------------------------------------|

    Intro:
    (Repete Riff Introdução 3x)
    1a vez: Guitarra solo somente
    2a vez: Guitarra solo + Guitarra base + Baixo
    3a vez: Guitarra solo + Guitarra base + Baixo + Bateria
    (Final da Introdução)

    Refrão:

    e|---------------------------|--------------12----10-----|
    B|-----14-------15----14-----|-----13--------------------|
    G|--------14-------14----14--|--------12-10----12----12--|
    D|-----------14--------------|--10-----------------------|
    A|---------------------------|---------------------------|
    E|---------------------------|---------------------------|

    e|--------------15----14-----|--------------15---14-----|
    B|-----15--------------------|-----15-------------------|
    G|--------14-12----14----14--|--------14-12---14----14--|
    D|--12-----------------------|--12----------------------|
    A|---------------------------|--------------------------|
    E|---------------------------|--------------------------|

    e|---------------------------|--------------12----10-----|
    B|-----14-------15----14-----|-----13--------------------|
    G|--------14-------14----14--|--------12-10----12----12--|
    D|-----------14--------------|--10-----------------------|
    A|---------------------------|---------------------------|
    E|---------------------------|---------------------------|

    e|---------------------------|---------------------------|
    B|-----15--------------------|---------------------------|
    G|--14-14--------------------|---------------------------|
    D|---------------------------|---------------------------|
    A|---------------------------|---------------------------|
    E|---------------------------|---------------------------|

    Solo 1:

    e|-----------------------------------------------------------------------|
    B|--10h---8------7--------10---8------7------10h---8---------------10h---|
    G|---------------------------------------------------------9-------------|
    D|-----------------------------------------------------------------------|
    A|-----------------------------------------------------------------------|
    E|-----------------------------------------------------------------------|

    e|--------------------------------------------------10--10b-----10-----|
    B|--8---------------10/---8------10r---8-----10b-----------------------|
    G|---------9------------------------------------------------------9b---|
    D|---------------------------------------------------------------------|
    A|---------------------------------------------------------------------|
    E|---------------------------------------------------------------------|

    Solo 2:

    e|------------------------------------------------------------------------|
    B|-10--8------7--------10----8------7--------10h---8----------------10h-|
    G|---------------------------------------------------------9-------------|
    D|------------------------------------------------------------------------|
    A|------------------------------------------------------------------------|
    E|------------------------------------------------------------------------|

    e|------------------------------------------------------------------|
    B|--8----------------10/---8--------------10/---8--------7r------7b-|
    G|---------9-------------------------------------------------7-----|
    D|------------------------------------------------------------------|
    A|------------------------------------------------------------------|
    E|------------------------------------------------------------------|

    e|-----10---------------------------------------------------|
    B|---------7-8-7------------------10----8------7--------10h-|
    G|----------------------------------------------------------|
    D|----------------------------------------------------------|
    A|----------------------------------------------------------|
    E|----------------------------------------------------------|

    e|----------------10----10/---8/-----12--------12----12/---10--10/---8----7b-|
    B|--8----7/-12---------------------------------------------------------------|
    G|---------------------------------------------------------------------------|
    D|---------------------------------------------------------------------------|
    A|---------------------------------------------------------------------------|
    E|---------------------------------------------------------------------------|

    e|--7-------------------------------10--10b-----10----------17--------------|
    B|-------8---------10b10h8----10b-------------------17b-----17b-------------|
    G|----------7~--------------------------------------------------------------|
    D|--------------------------------------------------------------------------|
    A|--------------------------------------------------------------------------|
    E|--------------------------------------------------------------------------|

    Solo 3:
    Em C B5
    |-17b--171514-14h15p14-12-14b--14p12--111214----------------------------|
    |---------------------------------------------15b(15)12-----------------|
    |--------------------------------------------------------14b(14)--------|
    |-----------------------------------------------------------------------|
    |-----------------------------------------------------------------------|
    |-----------------------------------------------------------------------|
    Am Em C
    |---------------------------------------------------------15b--15~~-----|
    |------------------------1312-----13b13p1212~--12h13p12-----------------|
    |-11-11h12-------111214-------1414---------------------14---------------
    |----------14~14--------------------------------------------------------|
    |-----------------------------------------------------------------------|
    |-----------------------------------------------------------------------|
    B5 Am Em
    |-----------------------------------------------------------------------|
    |--7b(7)----7b(7)-------7~-7b(7)--------------7(7)-------------77~------|
    |-------99~~-----9-8h98---------9---------9~--------99-8h9-8~-----------|
    |--------------------------------10-9h10--------------------------------|
    |-----------------------------------------------------------------------|
    |-----------------------------------------------------------------------|
    C B5 Em C
    |-----------------7h8p7-7811-781112-8111214-111214-15-1214-15-----------|
    |-----7h8p7-810---------------------------------------------------------|
    |--89-------------------------------------------------------------------|
    |-----------------------------------------------------------------------|
    |-----------------------------------------------------------------------|
    |-----------------------------------------------------------------------|
    B5
    |-14h15p14p12----1215p14p12---12---------12--------------12-------------|
    |-------------15------------15---15b-15b---15p12---15b15b--15p12--------|
    |-----------------------------------------------14---------------14-----|
    |-----------------------------------------------------------------------|
    |-----------------------------------------------------------------------|
    |-----------------------------------------------------------------------|

    |--------------15-------------------------------------------------------|
    |17b-17b--17b-----17b--17b(17)p15-17~~-15b--1512-12h15p12---12----------|
    |---------------------------------------------------------14---14b(14)p12|
    |-----------------------------------------------------------------------|
    |-----------------------------------------------------------------------|
    |-----------------------------------------------------------------------|

    |-----------------------------------------------------------------------|
    |--------------------------------15----15----15----15-------------------|
    |---14~~--12-14-14b--14-1412-14b----14b--14b----14b----14b--------------|
    |-----------------------------------------------------------------------|
    |-----------------------------------------------------------------------|
    |-----------------------------------------------------------------------|

    |---------------------------------------------15-15---------------------|
    |----------------------------13--------13-----15-15-15-15-15-15-15-15---|
    |----12-14-12-14~~~-14p12-------14p12-----14b-------14-14-14-14-14-14---|
    |-14----------------------14---------14---------------------------------|
    |-----------------------------------------------------------------------|
    |-----------------------------------------------------------------------|

    |-17-17-----------------------------------------------------------------|
    |-17-17-----------------------------------------------------------------|
    |-------------------12---------------------12----------12--12-14p12-----|
    |---------x-x-12h14----14-12-14~~-x-x-12h14---x-x-12h14--14---------14--|
    |-----------------------------------------------------------------------|
    |-----------------------------------------------------------------------|

    |------------------13p12--15-14-12--15-14-12--15-14-12--------------12--|
    |-13p12---15p13-------------------------------------------15b----15-----|
    |-------14------14------------------------------------------------------|
    |-----------------------------------------------------------------------|
    |-----------------------------------------------------------------------|
    |-----------------------------------------------------------------------|
    |arpejo | |arpejo| |arpejo | |arpejo|
    |----------------12--15-13-12------12--15-13-12------12--15-13-12-----12|
    |--15-12-------13----------------13----------------13---------------13--|
    |--------14--14----------------14----------------14---------------14----|
    |-----------------------------------------------------------------------|
    |-----------------------------------------------------------------------|
    |-----------------------------------------------------------------------|
    |arpejo|
    |-----12--12--x(15)--17b---15-12--12--12--------------------------------|
    |---13--------x(15)-------------15--15--15-13-12-15-13-12---12----------|
    |-14------------------------------------------------------14---14-12--12|
    |-------------------------------------------------------------------14--|
    |-----------------------------------------------------------------------|
    |-----------------------------------------------------------------------|

    |-----------------------------------------------------------------------|
    |-----------------------------------------------------------------------|
    |-----------------------------------------------------------------------|
    |--14-12-14~~~~~~-------------------------------------------------------|
    |-----------------------------------------------------------------------|
    |-----------------------------------------------------------------------|



    Letra cifrada:


    D
    She's got smile that it seems to me
    C
    reminds me of childhood memories,
    G D
    Where everything was as fresh as the bright blue sky
    D
    Now and then When I see her face
    C
    she takes me away to that special place,
    G
    and if I stared too long,
    D
    I'd probably break down and cry

    | A5 C5 D5
    |Woah, woah, woah, sweet child o' mine
    | A5 C5 D5
    |Woah, oh, oh, oh, sweet love of mine


    (Solo 1) -> Base (D C G)

    D
    She's got eyes of the bluest skies,
    C
    as if they thought of rain
    G
    I hate to look into those eyes
    D
    and see anounce of pain
    D
    Her hair reminds me of a warm safe place
    C
    where as a child I'd hide,
    G
    And pray for the thunder and the rain
    D
    to quietly pass me by

    | A5 C5 D5
    |Woah, woah, woah, sweet child o' mine
    | A5 C5 D5
    |Woah, oh, oh, oh, sweet love o' mine


    (Solo 2) -> Base (D C G)

    | A5 C5 D5
    |Woah, oh, oh, oh, sweet child o' mine
    | A5 C5 D5
    |Woah, oh, oh, oh, sweet love o' mine
    | A5 C5 D5
    |Woah, oh, oh, oh, sweet child o' mine
    | A5 C5 D5
    |Woah, oh, oh, oh, sweet love o' mine


    (Solo 3) -> Base (E C B A) 4x (E G A C D) 4x

    Em G5
    Where do we go? Where do we go now?
    A5 C5 D5
    Where do we go?
    Em G5
    Where do we go? Where do we go?
    A5 C5 D5
    Where do we go now?
    Em G5
    Where do we go? Sweet child, where do we go now?
    A5 C5 D5
    Where do we go?
    Em G5
    Where do we go? Where do we go now?
    A5 C5 D5
    Where do we go?
    Em G5
    Where do we go? Where do we go?
    A5 C5 D5
    Where do we go now?


    E5 D5 B5 A5 G5 F#5 Em
    No, no, no, no, no, no, no
    G5 A5 C5 D5 Em
    Sweet child, sweet chiiilldddd of of mine
     

    Visualizações mensais: 189

top 50 músicas

Todas as letras e cifras são propriedade dos seus respectivos autores.
É permitido somente a visualização na tela das letras de música encontradas no Letras de Músicas,
vedada sua reprodução através de qualquer outros meios. (Lei 9610/98)
All lyrics are property and copyright of their owners. All lyrics provided for educational purposes only.