Mais Uma Vez ( cifra ) - Jota Quest Letras de músicas - Letra da música Mais Uma Vez ( cifra )

Utilize o abecedário abaixo para abrir as páginas de letras dos artistas

0-9ABCDEFGHIJKLMNOPQRSTUVWXYZ

Mais Uma Vez ( cifra ) letra

     Mais Uma Vez ( cifra )

    >> Todas as letras de "Jota Quest"
     Mais Uma Vez ( cifra )
    >> Jota Quest
     
        intro: Bb F Gm Eb Bb


    *Solinho,na 2 vez da intro logo depois do F*
    e|----------------
    B|----------------
    G|----------------
    D|----------------
    A|----3-4-5----6--
    E|----------3-----



    Lá lá lá lá.. Yeah
    Bb F Gm
    Te tenho com a certeza de que você pode ir
    Eb
    Te amo com a certeza de que irá voltar
    Bb F Gm
    Pra gente ser feliz
    Eb
    você chegou e juntos conseguimos ir mais longe
    Bb F Gm Eb
    você dividiu comigo a sua história e me ajudou a construir a
    minha
    Bb F Gm
    Hoje mais do que nunca somos dois
    Eb
    A nossa liberdade é oque nos prende

    *Riff 1*
    e|-------------------------------------------------------------8-10-11-10-8-----
    B|---11-10-11-11-10-11-11-10-11-13-11-10---11-10-11-11-10-6-8---------------11--
    G|------------------------------------------------------------------------------
    D|------------------------------------------------------------------------------
    A|------------------------------------------------------------------------------
    E|------------------------------------------------------------------------------


    Bb F Gm Eb
    Viva todo o seu mundo
    Bb F Gm Eb
    Sinta toda a liberdade
    Bb F Gm Eb
    E quando a hora chegar, volta ...
    Bb F Gm Eb
    O nosso amor está acima das coisas desse mundo



    Refrão:

    Eb Dm Cm Eb
    Vai dizer que o tempo não parou
    F Gm
    Naquele momento
    Eb Dm Cm Eb
    Espero por você o tempo que for
    F Eb Dm Bb
    Pra ficarmos juntos ............... mais uma vez


    Bb F Gm Eb (2x)

    *Riff 1*

    Bb F Gm
    Te tenho com a certeza de que você pode ir
    Eb
    Te amo com a certeza de que irá voltar
    Bb F Gm
    Pra gente ser feliz
    Eb
    você chegou e juntos conseguimos ir mais longe
    Bb F Gm Eb
    você dividiu comigo a sua história e me ajudou a construir a
    minha
    Bb F Gm
    Hoje mais do que nunca somos dois



    Refrão:

    Eb Dm Cm Eb
    Vai dizer que o tempo não parou
    F Gm
    Naquele momento
    Eb Dm Cm Eb
    Espero por você o tempo que for
    F Eb Dm Bb
    Pra ficarmos juntos ............... mais uma vez

    *Solo*
     

    Visualizações mensais: 119

top 50 músicas

Todas as letras e cifras são propriedade dos seus respectivos autores.
É permitido somente a visualização na tela das letras de música encontradas no Letras de Músicas,
vedada sua reprodução através de qualquer outros meios. (Lei 9610/98)
All lyrics are property and copyright of their owners. All lyrics provided for educational purposes only.