From The Inside ( cifra ) - Linkin Park Letras de músicas - Letra da música From The Inside ( cifra )

Utilize o abecedário abaixo para abrir as páginas de letras dos artistas

0-9ABCDEFGHIJKLMNOPQRSTUVWXYZ

From The Inside ( cifra ) letra

     From The Inside ( cifra )

    >> Todas as letras de "Linkin Park"
    >> Veja todas as letras do álbum "Meteora"
     From The Inside ( cifra )
    >> Linkin Park
     
        Versão 1
    -======-

    Guitar (Brad Delson)

    (Intro)


    Eb||------|------|------|---------------------------
    Bb||------|------|------|---------------------------
    Gb||------|------|------|---------------------------
    Db||------|------|------|--0-0--0--0-0----0--3-3--3-|---3-3----3--8-8--8--8-8--|
    Ab||------|------|------|--0-0--0--0-0----0--3-3--3-|---3-3----3--8-8--8--8-8--|
    Db||------|------|------|--0-0--0--0-0----0--3-3--3-|---3-3----3--8-8--8--8-8--|



    |-------------------------|-------------------------
    |-------------------------|-------------------------
    |-------------------------|-------------------------
    |----8--5-5--5--5-7----7--|--0-0--0--0-0----0--3-3--3-|
    |----8--5-5--5--5-7----7--|--0-0--0--0-0----0--3-3--3-|
    |----8--5-5--5--5-7----7--|--0-0--0--0-0----0--3-3--3-|




    |--------------------------|------------------------
    |--------------------------|------------------------
    |--------------------------|-----------------------
    |---3-3----3--8-8--8--8-8--|----8--5-5--5--5-7----7-
    |---3-3----3--8-8--8--8-8--|----8--5-5--5--5-7----7-
    |---3-3----3--8-8--8--8-8--|----8--5-5--5--5-7----7-

    (Refrão)

    |----------------------|
    |----------------------|
    |----------------------|
    |----------------------|
    |--------------0-0-0-0-|
    |--------------5-5-5-5-|



    |---------------------------|--------------------------|
    |---------------------------|--------------------------|
    |---------------------------|--------------------------|
    |--0-0--0--0-0----0--3-3--3-|---3-3----3--8-8--8--8-8--|
    |--0-0--0--0-0----0--3-3--3-|---3-3----3--8-8--8--8-8--|
    |--0-0--0--0-0----0--3-3--3-|---3-3----3--8-8--8--8-8--|



    |-------------------------|---------------------------|
    |-------------------------|---------------------------|
    |-------------------------|---------------------------|
    |----8--5-5--5--5-7----7--|--0-0--0--0-0----0--3-3--3-|
    |----8--5-5--5--5-7----7--|--0-0--0--0-0----0--3-3--3-|
    |----8--5-5--5--5-7----7--|--0-0--0--0-0----0--3-3--3-|




    |--------------------------|-------------------------|
    |--------------------------|-------------------------|
    |--------------------------|-------------------------|
    |---3-3----3--8-8--8--8-8--|----8--5-5--5--5-7----7--|
    |---3-3----3--8-8--8--8-8--|----8--5-5--5--5-7----7--|
    |---3-3----3--8-8--8--8-8--|----8--5-5--5--5-7----7--|

    (refrão)

    |----------------------|
    |----------------------|
    |----------------------|
    |----------------------|
    |--------------0-x-0-0-|
    |--------------5-x-5-5-|



    |---------------------------|--------------------------|
    |---------------------------|--------------------------|
    |---------------------------|--------------------------|
    |--0-0--0--0-0----0--3-3--3-|---3-3----3--8-8--8--8-8--|
    |--0-0--0--0-0----0--3-3--3-|---3-3----3--8-8--8--8-8--|
    |--0-0--0--0-0----0--3-3--3-|---3-3----3--8-8--8--8-8--|



    |-------------------------|---------------------------|
    |-------------------------|---------------------------|
    |-------------------------|---------------------------|
    |----8--5-5--5--5-7----7--|--0-0--0--0-0----0--3-3--3-|
    |----8--5-5--5--5-7----7--|--0-0--0--0-0----0--3-3--3-|
    |----8--5-5--5--5-7----7--|--0-0--0--0-0----0--3-3--3-|




    |--------------------------|-------------------------|
    |--------------------------|-------------------------|
    |--------------------------|-------------------------|
    |---3-3----3--8-8--8--8-8--|----8--7-7--7--7-7----7--|
    |---3-3----3--8-8--8--8-8--|----8--7-7--7--7-7----7--|
    |---3-3----3--8-8--8--8-8--|----8--7-7--7--7-7----7--|

    (pós-refrão)


    |------------------------------------------------|----------------------|----------------------------|
    |------------------------------------------------|----------------------|----------------------------|
    |------------------------------------------------|----------------------|----------------------------|
    |----0-0--0--0-------0-0--0--0-------0-0--0--0---|------1-1--1--1-------|--0-0--0--0----0--1--0-0--0-|
    |----0-0--0--0-------0-0--0--0-------0-0--0--0---|------1-1--1--1-------|--0-0--0--0-7--0--1--0-0--0-|
    |----0-0--0--0-------0-0--0--0-------0-0--0--0---|------1-1--1--1-------|--0-0--0--0----0--1--0-0--0-|



    |---------------------------|----------------------------|
    |---------------------------|----------------------------|
    |---------------------------|----------------------------|
    |---0----0--1--0-0--0--0----|--0--1--1-1--1--1-1-1--1--1-|
    |---0-7--0--1--0-0--0--0-7--|--0--1--1-1--1--1-1-1--1--1-|
    |---0----0--1--0-0--0--0----|--0--1--1-1--1--1-1-1--1--1-|



    |----------------------------|---------------------------|
    |----------------------------|---------------------------|
    |----------------------------|---------------------------|
    |--0-0--0--0----0--1--0-0--0-|---0----0--1--0-0--0--0----|
    |--0-0--0--0-7--0--1--0-0--0-|---0-7--0--1--0-0--0--0-7--|
    |--0-0--0--0----0--1--0-0--0-|---0----0--1--0-0--0--0----|



    |----------------------------|
    |----------------------------|
    |----------------------------|
    |--0--1--1-1--1--1-1-1--1--1-|
    |--0--1--1-1--1--1-1-1--1--1-|
    |--0--1--1-1--1--1-1-1--1--1-|

    (verse)

    |------------------------------------|---------------------------|
    |------------------------------------|---------------------------|
    |------------------------------------|---------------------------|
    |---8-8--8--8-8-8--5-5--5--5-7----7--|--0-0--0--0-0----0--3-3--3-|
    |---8-8--8--8-8-8--5-5--5--5-7----7--|--0-0--0--0-0----0--3-3--3-|
    |---8-8--8--8-8-8--5-5--5--5-7----7--|--0-0--0--0-0----0--3-3--3-|



    |--------------------------|------------------------ -|
    |--------------------------|-------------------------|
    |--------------------------|-------------------------|
    |---3-3----3--8-8--8--8-8--|----8--5-5--5--5-7----7--|
    |---3-3----3--8-8--8--8-8--|----8--5-5--5--5-7----7--|
    |---3-3----3--8-8--8--8-8--|----8--5-5--5--5-7----7--|

    (refrão)

    |---------------------------|--------------------------|
    |---------------------------|--------------------------|
    |---------------------------|--------------------------|
    |--0-0--0--0-0----0--3-3--3-|---3-3----3--8-8--8--8-8--|
    |--0-0--0--0-0----0--3-3--3-|---3-3----3--8-8--8--8-8--|
    |--0-0--0--0-0----0--3-3--3-|---3-3----3--8-8--8--8-8--|



    |-------------------------|---------------------------|
    |-------------------------|---------------------------|
    |-------------------------|---------------------------|
    |----8--5-5--5--5-7----7--|--0-0--0--0-0----0--3-3--3-|
    |----8--5-5--5--5-7----7--|--0-0--0--0-0----0--3-3--3-|
    |----8--5-5--5--5-7----7--|--0-0--0--0-0----0--3-3--3-|




    |--------------------------|------------------------
    |--------------------------|------------------------
    |--------------------------|------------------------
    |---3-3----3--8-8--8--8-8--|----8--7-7--7--7-7----7-
    |---3-3----3--8-8--8--8-8--|----8--7-7--7--7-7----7-
    |---3-3----3--8-8--8--8-8--|----8--7-7--7--7-7----7-

    (pra terminar toca issim)

    |------------------------------------------------||
    |------------------------------------------------||
    |------------------------------------------------||
    |----0-0--0--0-------0-0--0--0-------0-0--0--0---||
    |----0-0--0--0-------0-0--0--0-------0-0--0--0---||
    |----0-0--0--0-------0-0--0--0-------0-0--0--0---||



    I don't know who to trust
    no surprise
    everyone feels so far away from me
    heavy thoughts sift through dust
    and the lies
    trying not to break
    but i'm so tired of this deceit
    every time i try to make myself
    get back up on my feet
    all i ever think about is this
    all the tiring time between
    and how
    trying to put my trust in you
    just takes so much out of me

    I take everything from the inside
    and throw it all away
    cause i swear / for the last time
    I won't trust myself with you

    tension is building inside
    steadily
    everyone feels so far away from me
    heavy thoughts forcing their way
    out of me

    I won't trust myself with you
    I won't waste myself on you
    waste myself on you
    you






    Versão 2
    -======-

    Dropped D and tuned down 1/2 step (Dropped Db or C#)


    Intro
    eb--------------------------------------------------
    Bb--------------------------------------------------
    Gb--------------------------------------------------
    Db--7-----7-----5-----7-----7-----5-----------------
    Ab-----5-----5-----5-----5-----5-----5--------------
    Db--------------------------------------------------


    Chorus
    eb-----------------------------------------------------------
    Bb-----------------------------------------------------------
    Gb-----------------------------------------------------------
    Db--000000--333333--8--88888-555--777--
    Ab--000000--333333--8--88888-555--777--
    Db--000000--333333--8--88888-555--777--


    Verse
    eb--------------------------------------------------
    Bb--------------------------------------------------
    Gb--------------------------------------------------
    Db--------------------------------------------------
    Ab--12-----12-----12------12----10---10---10--------
    Db-----12-----12------12-----12----10---10--10------

    (continued)
    eb--------------------------------------------------
    Bb--------------------------------------------------
    Gb--------------------------------------------------
    Db---------7---7---7---7---5---5---5----------------
    Ab--8--7-------------------------------------8--7---
    Db-----------8---8---8---8---5----5---5-------------


    Fill
    eb--------------------------------------------------
    Bb--------------------------------------------------
    Gb--------------------------------------------------
    Db--------------------------------------------------
    Ab--------------------------------------------------
    Db--------------------------------------


    Bridge 1
    eb--------------------------------------------------
    Bb--------------------------------------------------
    Gb--------------------------------------------------
    Db--0-0--0--0----0-0--0--0----0-0--0--0----1-1--1-1-
    Ab--0-0--0--0----0-0--0--0----0-0--0--0----1-1--1-1-
    Db--0-0--0--0----0-0--0--0----0-0--0--0----1-1--1-1-


    Bridge 2
    eb--------------------------------------------------
    Bb--------------------------------------------------
    Gb--------------------------------------------------
    Db--0-0--0--0--------0--1-----0-0--0--0--------0--1-
    Ab--0-0--0--0-----0--1-----0-0--0--0-----0--1-
    Db--0-0--0--0--------0--1-----0-0--0--0--------0--1-

    (continued)
    eb-----------------------------------------------------------
    Bb--------------------------------------------------
    Gb--------------------------------------------------
    Db--0-0--0--0--------0--1-----1-1--1--1----1-1--1-1-
    Ab--0-0--0--0-----0--1-----1-1--1--1----1-1--1-1-
    Db--0-0--0--0--------0--1-----1-1--1--1----1-1--1-1-


    Outro
    eb--------------------------------------------------
    Bb--------------------------------------------------
    Gb--------------------------------------------------
    Db--0-0--0--0----0-0--0--0----0-0--0--0----0-0--0-0-
    Ab--0-0--0--0----0-0--0--0----0-0--0--0----0-0--0-0-
    Db--0-0--0--0----0-0--0--0----0-0--0--0----0-0--0-0--



    Riff
    Chorus, Riff
    Verse
    Fill
    Chorus, Riff
    Verse
    Fill
    Chorus, Riff
    Bridge 1, Riff
    Bridge 2, Riff
    Chorus (wait a few beats then start), Riff
    Outro
     

    Visualizações mensais: 58

top 50 músicas

Todas as letras e cifras são propriedade dos seus respectivos autores.
É permitido somente a visualização na tela das letras de música encontradas no Letras de Músicas,
vedada sua reprodução através de qualquer outros meios. (Lei 9610/98)
All lyrics are property and copyright of their owners. All lyrics provided for educational purposes only.