In The End ( cifra ) - Linkin Park Letras de músicas - Letra da música In The End ( cifra )

Utilize o abecedário abaixo para abrir as páginas de letras dos artistas

0-9ABCDEFGHIJKLMNOPQRSTUVWXYZ

In The End ( cifra ) letra

     In The End ( cifra )

    >> Todas as letras de "Linkin Park"
    >> Veja todas as letras do álbum "Hybrid Theory"
     In The End ( cifra )
    >> Linkin Park
     
        afinação: Eb

    It starts with one thing
    I don't know why
    It doesn't even matter how hard you try
    keep that in mind
    I designed this rhyme
    To explain in due time
    All I know
    Time is a valuable thing
    Watch it fly by as the pendulum swings
    Watch it count down to the end of the day
    The clock ticks life away
    It's so unreal
    Didn't look out below
    Watch the time go right out the window
    Trying to hold on, but didn't even know
    Wasted it all just to watch you go
    I kept everything inside and even though I tried, it all fell apart
    What it meant to me will eventually be a memory of a time when

    [REFRÃO]
    I tried so hard, and got so far
    But in the end, it doesn't even matter
    I had to fall, to lose it all
    But in the end, it doesn't even matter

    One thing, I don't know why
    It doesn't even matter how hard you try
    keep that in mind
    I designed this rhyme, to remind myself how
    I tried so hard
    In spite of the way you were mocking me
    Acting like I was part of your property
    Remembering all the times you fought with me
    I'm surprised it got so (far)
    Things aren't the way they were before
    You wouldn't even recognize me anymore
    Not that you knew me back then
    But it all comes back to me (in the end)
    You kept everything inside and even though I tried, it all fell apart
    What it meant to me will eventually be a memory of a time when I

    [REFRÃO]

    I've put my trust in you
    Pushed as far as I can go
    And for all this
    There's only one thing you should know (2x)

    [REFRÃO]

    Intro(feita no piano mais se for fze na guitarra...)
    [PARTE 1]

    eb|-----------------------------------------------------------|
    Bb|-------1-1---------------------------------------------------|
    f#|-----------1-------1---------------------------------|
    c#|----3--------5-5-5---4-3---------------------------------------|
    g#|-----------------------------------------------------------|
    Eb|-----------------------------------------------------------|

    verso:(com chorus)
    Eb|--------19*-------------------|
    Bb|-20-19*--------20-19-------17-|
    Gb|------------------------------|
    Db|------------------------------|
    Ab|------------------------------|
    Db|------------------------------|

    Notas Harmônicas (Tocar nas Harmônicas)
    [PARTE 2]

    e |------------------------------------------------------|
    B |-------------------------------------------|
    G |----------------------------------------------------------|
    D |----------------------------------------------------------|
    A |----------------------------------------------------------|
    E |----------------------------------------------------------|


    [Refrão]

    e |-----------------------------------------------------------|
    B |-----------------------------------------------------------|
    G |-------8----------------6------4---------------------------|
    D |-------8--------4-------6------4---------------------------|
    A |-------6--------4-------4------2---------------------------|
    E |----------------2------------------------------------------|



    interlúdio
    |--------------------------------------------------------------------|
    |--------------------------------------------------------------------|
    |--------------------------------------------------------------------|
    |--6--------9---------4-----------2-----4----------------------------| 2x
    |--6--------9---------4-----------2-----4----------------------------|
    |--6--------9---------2-----------2-----4----------------------------|
     

    Visualizações mensais: 111

top 50 músicas

Todas as letras e cifras são propriedade dos seus respectivos autores.
É permitido somente a visualização na tela das letras de música encontradas no Letras de Músicas,
vedada sua reprodução através de qualquer outros meios. (Lei 9610/98)
All lyrics are property and copyright of their owners. All lyrics provided for educational purposes only.