By The Way ( cifra ) - Red Hot Chili Peppers Letras de músicas - Letra da música By The Way ( cifra )

Utilize o abecedário abaixo para abrir as páginas de letras dos artistas

0-9ABCDEFGHIJKLMNOPQRSTUVWXYZ

By The Way ( cifra ) letra

     By The Way ( cifra )

    >> Todas as letras de "Red Hot Chili Peppers"
     By The Way ( cifra )
    >> Red Hot Chili Peppers
     
        Tom: F
    Riff1a (Intro)
    e------------------------------------------------------------------
    B------------------------------------------------------------------
    G-5-5-5-5-5-5-5-5-5-5-5-5-5-5-5-5----------------------------------
    D-3-3-3-3-3-3-3-3-2-2-2-2-2-2-2-2-2-2-2-2-2-2-2-2-2-2-2-2-2-2-2-2--
    A---------------------------------0-0-0-0-0-0-0-0-0-0-0-0-0-0-0-0--
    E------------------------------------------------------------------
    F C* A5
    Riff1b (Intro)
    e------------------------------------------------------------------
    B---------------------------------------------------------5-5-3-3--
    G-5-5-5-5-5-5-5-5-5-5-5-5-5-5-5-5-------------------------2-2-2-2--
    D-3-3-3-3-3-3-3-3-2-2-2-2-2-2-2-2-2-2-2-2-2-2-2-2-2-2-2-2-2-2-2-2--
    A---------------------------------0-0-0-0-0-0-0-0-0-0-0-0-0-0-0-0--
    E------------------------------------------------------------------
    F C* A5 A5* Asus4
    Bass riff1 (Intro)
    G-17-17-17-17-17-17-17-17-17-17-17-17-17-17-17-17-9-9-9-9-9-9-9-9-9-9-9-9-9-9-9-9-
    D-15-15-15-15-15-15-15-15-14-14-14-14-14-14-14-14-7-7-7-7-7-7-7-7-7-7-7-7-7-7-7-7-
    A---------------------------------------------------------------------------------
    D---------------------------------------------------------------------------------
    F C* A5 A5

    F C*
    Standing in line_ to see the show tonight_
    A5 A5* Asus4
    and there's a light__ on__ heavy_ glow__
    F (drums enter) C*
    By_ the_ way_ I_ tried to say
    A5
    I'd be there__ wai__ting for__
    F C*
    Dani the girl_ is singing songs to me_
    A5
    beneath the mar__quee__ overload__
    Riff2 (Funky)
    e-------------------------------------------------------------
    B-10-10---------10-10---------10-10---------10-10---13131313--
    G-10-10---------10-10---------10-10---------10-10---10101010--
    D-10-10---------10-10---------10-10---------10-10---10101010--
    A-12-12---------12-12---------12-12---------12-12---12121212--
    E-------------------------------------------------------------
    Bass riff2 (Steak knife, card shark.....)
    G--------------------------------------------------------
    D---------------3----------------------------3-----------
    A----------3h5-----3h5-3h5-----------3h5-----3h5---------
    D--0---0----------0----0-------0---0----------------3-2--

    G-------------------------------------------------------------
    D---------------3-----------------------------3---------------
    A----------3h5------3h5--3h5-----------3h5---3h5--5--6-6-6-6--
    D--0---0-----------0-----0---------0---0------0---------------
    [Verse1]
    Bass riff2
    Bass riff2
    steak knife card shark con job boot cut
    Bass riff2 (&Riff2)
    Skin that flick she's such a little DJ
    to get there quick by street but not the freeway
    turn that trick to make a little leeway
    beat that nic but not the way that we play
    Bass riff2
    dogtown blood bath rib cage soft tal
    [Chorus1]
    F C
    Standing in line_ to see the show tonight_
    Dm
    and there's a light__ on__ heavy_ glow__
    F C
    By_ the_ way_ I_ tried to say
    (By_ the_ WAY_ I_ tried to SAY)
    Am Bb
    I'd be there__ wai__ting for__
    (I'd be there__)
    [Verse1]
    Bass riff2
    Bass riff2
    black jack dope dick pawn shop quick pick
    Bass riff2 (&Riff2)
    kiss that dyke I know you want to hold one
    not on strike but I'm about to bowl one
    bite that mic I know you never stole one
    girls that like a story, so I told one
    Bass riff2
    song bird main line cash back hard top
    [Chorus2] (like intro)
    F C*
    Standing in line_ to see the show tonight_
    A5
    and there's a light__ on__ heavy_ glow__
    F C*
    By_ the_ way_ I_ tried to say
    A5 A5* Asus4
    I'd be there__ wai__ting for__
    F (drums enter) C*
    Dani the girl_ is singing songs to me_
    A5
    beneath the mar__quee__ oversold__
    F C*
    By_ the_ way_ I_ tried to say
    A5
    I'd be there__ wai__ting FOR__
    Bass riff2 (&Riff2)
    Bass riff2 (&Riff2) + Drums
    Bass riff2 (&Riff2)
    Oh Ah Guess you never want it 4x
    Bass riff2 (&Riff2)
    Oh Ah Guess you never want it 4x
    [Repeat Chorus2] (with drums and bass)
    F C
    Standing in line_ to see the show tonight_
    Dm
    and there's a light__ on__ heavy_ glow__
    F C
    By_ the_ way_ I_ tried to say
    Am Bb Dm
    I'd be there__ wai__ting for_______
     

    Visualizações mensais: 126

top 50 músicas

Todas as letras e cifras são propriedade dos seus respectivos autores.
É permitido somente a visualização na tela das letras de música encontradas no Letras de Músicas,
vedada sua reprodução através de qualquer outros meios. (Lei 9610/98)
All lyrics are property and copyright of their owners. All lyrics provided for educational purposes only.