Californication ( cifra ) - Red Hot Chili Peppers Letras de músicas - Letra da música Californication ( cifra )

Utilize o abecedário abaixo para abrir as páginas de letras dos artistas

0-9ABCDEFGHIJKLMNOPQRSTUVWXYZ

Californication ( cifra ) letra

     Californication ( cifra )

    >> Todas as letras de "Red Hot Chili Peppers"
     Californication ( cifra )
    >> Red Hot Chili Peppers
     
        Tom :Am
    Intro: Am F Am F (guitar+bass)
    Am F Am F (drums enter)
    Intro/verse guitar riff
    e---------------------------------------------
    B-----0-1-------------------------------------
    G-------------------------------0-2-----------
    D---2-----------------------------------------
    A-0---------------------------3---------------
    E---------------------------1-----------------
    Am F
    Intro Guitar & bass on single guitar
    (Notes in parentheses are played by the bass)
    e---------------------------------------------
    B-----0-1-------------------------------------
    G-------------------------------0-2-----------
    D---2-------(2)-(0h2p0)---------------(0)-----
    A-0---------------------(3)---3-----------(3)-
    E---------------------------1-----------------
    e---------------------------------------------
    B-----0-1-------------------------------------
    G-------------------------------0-2-----------
    D---2-------(2)-(0h2p0)---------------(3)-(0)-
    A-0---------------------(3)---3---------------
    E---------------------------1-----------------
    Am
    Psychic spies from China
    F
    Try to steal your mind elation
    Am
    Little girls from Sweden
    F
    Dream of silver screen quotations
    C G
    And if you want these kind of dreams
    F Dm
    It's Californication
    Am F Am F
    Am
    It's the edge of the world
    F
    in all of western civilization
    Am
    The sun may rise in the east
    F
    At least it settles in a final location
    C G
    It's understood that Hollywood
    F Dm
    Sells Californication__
    Am Fmaj7 (strum fast)
    Am Fmaj7
    Am Fmaj7
    Pay your surgeon very well to break the signs of aging
    Am Fmaj7
    Celebrity skin is this your chin or is it war your waging
    Am Fmaj7
    First born unicorn___
    Am Fmaj7
    Hard core_ soft porn___
    C G Dm Am
    Dream of Californication
    C G Dm
    Dream of Californication___
    Am F (&keyboard solo1a)
    Am F (&keyboard solo1b)
    Keyboard solo1a
    e-5-------------
    B----5--6-------
    G---------------
    Keyboard solo1b
    e-5--8----------
    B-------6-------
    G---------------
    Am
    Marry me girl - be the fairy to my world
    F
    Be my very own constellation
    Am
    A teenage bride with a baby inside
    F
    Getting high on information
    C G
    And buy me a star on the boulevard
    F Dm
    It's Californication
    Am F (&keyboard solo1a)
    Am F (&keyboard solo1a)
    Am
    Space may be the final frontier
    F
    But it's made in a Hollywood basement
    Am
    and Cobain can you hear the spheres
    F
    Singing songs off station to station
    C G
    And Alderon's not far away
    F Dm
    It's Californication
    Am Fmaj7 (strum fast)
    (Ooooooooooooooohoooooooooh)
    Am Fmaj7
    (Ooooooooooooooohoooooooooh)
    Am Fmaj7
    Born and raised by those who praise control of population
    (Ooooooooooooooohoooooooooh)
    Am Fmaj7
    Everybody's been there and I don't_ mean on vacation
    (Ooooooooooooooohoooooooooh)
    Am Fmaj7
    First born unicorn___
    (Ooooooooooooooohoooooooooh)
    Am Fmaj7
    Hard core_ soft porn___
    (Ooooooooooooooohoooooooooh)
    C G Dm Am
    Dream of Californication
    C G Dm
    Dream of Californication___
    C G Dm Am
    Dream of Californication
    C G Dm
    Dream of Californication___
    [Solo]
    F#m D
    F#m D
    Bm D A E
    F#m D
    F#m D
    Bm D A E
    Bm D A E
    Bm D A E
    e------9------------------9--------------------------------
    B--10------7b9r7------10------7b9r7------------------------
    G---------------------------------------11-11-11-11r9------
    D------------------------------------------------------11--
    A----------------------------------------------------------
    E----------------------------------------------------------
    e--------------------------------------9---12--14vvvvvv----
    B----------------------------------10----------------------
    G------------9---11b13r11---9------------------------------
    D-11---9-11------------------11----------------------------
    A----------------------------------------------------------
    E----------------------------------------------------------
    e-----9---12--14b16r14-14------17--16--14--12--14-12---12---
    B-10------------------------------------------------14---14-
    G-----------------------------------------------------------
    D-----------------------------------------------------------
    A-----------------------------------------------------------
    E-----------------------------------------------------------
    e-------------------------12-------14b16r14-12-----12-------
    B--12b14---12b14---12b14-----14----------------14-----14----
    G-----------------------------------------------------------
    D-----------------------------------------------------------
    A-----------------------------------------------------------
    E-----------------------------------------------------------
    e---------12--10--9----------|
    B-12--10-------------10------|
    G----------------------------|
    D----------------------------|
    A----------------------------|
    E----------------------------|
    Am F
    Am F (guitar+bass)
    Am
    Destruction leads to a very rough road
    F
    But it also breeds creation
    Am
    And earthquakes are to a girl's guitar
    F
    They are just another good vibration
    C G
    And tidal waves couldn't save the world
    F Dm
    From Califonication
    Am Fmaj7 (strum fast)
    (Ooooooooooooooohoooooooooh)
    Am Fmaj7
    (Ooooooooooooooohoooooooooh)
    Am Fmaj7
    Pay your surgeon very well to break the signs of aging
    Am Fmaj7
    Sicker then the rest - there is no test but this is what you're craving
    Am Fmaj7
    First born unicorn___
    Am Fmaj7
    Hard core_ soft porn___
    C G Dm Am
    Dream of Californication
    C G Dm
    Dream of Californication___
    C G Dm Am
    Dream of Californication
    C G Dm
    Dream of Californication___
     

    Visualizações mensais: 118

top 50 músicas

Todas as letras e cifras são propriedade dos seus respectivos autores.
É permitido somente a visualização na tela das letras de música encontradas no Letras de Músicas,
vedada sua reprodução através de qualquer outros meios. (Lei 9610/98)
All lyrics are property and copyright of their owners. All lyrics provided for educational purposes only.