Elevation ( cifra ) - U2 Letras de músicas - Letra da música Elevation ( cifra )

Utilize o abecedário abaixo para abrir as páginas de letras dos artistas

0-9ABCDEFGHIJKLMNOPQRSTUVWXYZ

Elevation ( cifra ) letra

     Elevation ( cifra )

    >> Todas as letras de "U2"
    >> Veja todas as letras do álbum "All That You Can't Leave Behind"
     Elevation ( cifra )
    >> U2
     
        Tom: E5
    Lead1 (Piano, 1 octave higher with effect pedal)
    e---12--10--12--10--12--10--12--10---
    B------------------------------------
    G------------------------------------
    D------------------------------------
    A------------------------------------
    E------------------------------------
    Bass riff1 (Intro)
    G---------------------------------------------
    D---------------------------------------------
    A-------------5-6-7-----------7---------------
    E------7-\5-----------7-\5--------7-\5--------
    Riff1 (with effect)
    e-------------------
    B-------------------
    G--9----------------
    D--9-------7--------
    A--7-------7--------
    E----------5--------
    e5 A5
    [Intro]
    Lead1
    e5 A5 (&Lead1)
    e5 A5 (&Lead1)
    e5 A5 (&Lead1)
    e5 A5 (&Lead1) (drum enter)
    e5 A5 (&Lead1) (bass enter)
    e5 A5 (&Lead1)
    e5 A5 (&Lead1)
    yeah yeah
    Riff2 (Intro - huuh)
    e-------------------
    B-------------------
    G-9---9---14---14---
    D-9---9---14---14---
    A-7---7---12---12---
    E-------------------
    e5 a5

    e5 a5 e5 a5
    huuuh huu huuuh hu hu
    e5 a5 e5 a5
    huuuh huu huuuh hu hu
    e5 a5 e5 a5
    huuuh huu huuuh hu hu
    e5 a5 B5 A5
    huuuh huu
    Riff3 (end of intro)
    e--------------------
    B--------------------
    G-4--4--4-4--2-2--2--
    D-4--4--4-4--2-2--2--
    A-2--2--2-2--0-0--0--
    E--------------------
    B5 A5
    [Verse1]
    B5 A5 e5
    High__, higher than the sun__ You shoot me from a
    B5 A5 e5
    gun__ I need you to elevate me here
    B5 A5 e5
    At the corner of your lips_ As the orbit of your
    B5 A5 e5
    hips_ Eclipse, you elevate my
    Lead2 ('SOUL...')
    e------------------------
    B---5p3h5---3h5-5-3-5-0--
    G------------------------
    D------------------------
    A------------------------
    E------------------------
    [Chorus1] (Lead2)
    B5 A5 e5
    SOUL__ I've got more self-control Been living like a
    B5 A5 e5
    Mole Now going down, excavation_
    B5 A5 e5
    I and I_ in the sky_ You make me feel like I can
    B5 A5 e5
    Fly So high, e__le__va__tion__
    [Interlude]
    B5 Bb5 A5 e5
    B5 Bb5 A5 e5
    [Verse2]
    B5 A5 e5
    A star_ lit up like a cigar_ Strung out like a
    B5 A5 e5
    guitar_ Maybe you can educate my
    B5 A5 e5
    mind_ Explain all these controls I can't sing but I've got
    B5 A5 e5
    Soul_ The goal_ is e_le_va_tion_
    [Chorus2] (Lead2)
    B5 A5 e5
    A mole__, digging in a hole_ Digging up my
    B5 A5 e5
    Soul__ Now going down, ex_ca_va_tion_
    B5 A5 e5
    I and I_ in the sky_ You make me feel like I can
    B5 A5 e5
    Fly So high, e__le__va__tion__
    e5 a5 e5 a5
    huuuh huu huuuh hu hu
    e5 a5 e5 a5
    huuuh huu huuuh hu hu
    e5 a5 e5 a5
    huuuh huu huuuh hu hu
    e5 a5 B5 A5
    huuuh huu
    [Bridge]
    E D A
    Love_____, lift_ me_ up out_ these_ blues_
    E D [nc] (techno beats)
    Won't you tell_ me_ something_ true_ - I believe__ in you_
    [Chorus2] (Lead2)
    B5 A5 e5
    A mole__, digging in a hole_ Digging up my
    B5 A5 e5
    Soul__ Now going down, ex_ca_va_tion_
    B5 A5 e5
    I and I_ in the sky_ You make me feel like I can
    B5 A5 e5
    Fly So high, e__le__va__tion__
    Lead3 (Outro with wah wah)
    e-------------------------
    B-------------------------
    G---9~~~---8~~~---7~~~~~--
    D-------------------------
    A-------------------------
    E-------------------------
    [Outro] (Lead3)
    e5 a5 e5 a5
    Elevation_
    e5 a5 e5 a5
    Elevation_
    e5 a5 e5 a5
    Elevation_
    e5 a5 b5 a5
    E_le_va_tion_
    e5 a5 e5 a5
    huuuh huu huuuh hu hu
    e5 a5 e5 a5
    huuuh huu huuuh hu hu
    e5 a5 e5 a5
    huuuh huu huuuh hu hu
    e5 a5 B5 A5
    huuuh huu
    Fade out..
     

    Visualizações mensais: 131

top 50 músicas

Todas as letras e cifras são propriedade dos seus respectivos autores.
É permitido somente a visualização na tela das letras de música encontradas no Letras de Músicas,
vedada sua reprodução através de qualquer outros meios. (Lei 9610/98)
All lyrics are property and copyright of their owners. All lyrics provided for educational purposes only.