I Will Follow ( cifra ) - U2 Letras de músicas - Letra da música I Will Follow ( cifra )

Utilize o abecedário abaixo para abrir as páginas de letras dos artistas

0-9ABCDEFGHIJKLMNOPQRSTUVWXYZ

I Will Follow ( cifra ) letra

     I Will Follow ( cifra )

    >> Todas as letras de "U2"
     I Will Follow ( cifra )
    >> U2
     
        Tom : E5
    Riff1 (Intro)
    eb--0--0--0--0--0--0--0--0--|---0--0--0--0--0-12--0-12--|
    Bb-12-12-12-12-12-12-12-12--|--10-10-10-10-10-10-10-10--|
    Gb--9--9--9--9--9--9--9--9--|---9--9--9--9--9--9--9--9--|
    Db--------------------------|---------------------------|
    Ab--------------------------|---------------------------|
    Eb--------------------------|---------------------------|
    Bass riff1
    Gb-------------------------2-2------
    Db-2-2-2-2---------2-2-2-2-----0-0--
    Ab---------3-3-3-3------------------
    Eb----------------------------------
    e5 C5 e5 a5 D5
    [Intro]
    Riff1
    Riff1
    Riff1 +drums
    Riff1
    I will follow_
    e5 C5 (Riff1, drums, +Bass riff1)
    e5 a5 D5 (Riff1, drums, +Bass riff1)
    Riff2 (Verse, palm mute)
    eb----------------------------------
    Bb-5---5---5---5---5---5---5---5----
    Gb---4---4---4---4---2---2---2---2--
    Db----------------------------------
    Ab----------------------------------
    Eb----------------------------------
    E A
    [Verse1]
    E5 A5
    I_ was_ on_ the_ out_side__
    E5 A5
    when you said_ - You said you needed me___
    E5 A5
    I_ was_ looking_ at_ my_self_
    E5 A5
    I was blind_, I could not see___
    [Interlude1]
    e5 C5 (Riff1, drums, +Bass riff1)
    e5 a5 D5 (Riff1, drums, +Bass riff1)
    e5 C5 (Riff1, drums, +Bass riff1)
    e5 a5 D5 (Riff1, drums, +Bass riff1)
    [Verse2]
    E5 A5
    A boy tries hard_ to be__ a man__
    E5 A5
    His mother_ takes him by__ his hand__
    E5 A5
    If he stops to think he starts to cry__
    E5 A5
    Oh__ why____
    [Chorus1]
    E5 A5
    If you walk_away__, walk_away__ - I walk_away__, walk_away__
    E5 A5
    I_ will_ fol_low__
    E5 A5
    If you walk_away__, walk_away__ - I walk_away__, walk_away__
    E5 A5
    I_ will_ fol_low__
    [Interlude2]
    e5 C5 (Riff1, drums, +Bass riff1)
    (I will follow)
    e5 a5 D5 (Riff1, drums, +Bass riff1)
    e5 C5 (Riff1, drums, +Bass riff1)
    e5 a5 D5 (Riff1, drums, +Bass riff1)
    [Verse3]
    E5 A5
    I_ was_ on_ the_ in_side__
    E5 A5
    When they pulled the four walls do__o_wn__
    E5 A5
    I_ was_ looking_ through_ the window
    E5 A5
    I was lost__, I_ am_ found___
    [Chorus2]
    E5 A5
    Walk_away__, walk_away__ - I walk_away__, walk_away__
    E5 A5
    I_ will_ fol_low__
    E5 A5
    If you walk_away__, walk_away__ - I walk_away__, walk_away__
    E5 A5
    I_ will_ fol_low__
    [Interlude3]
    e5 C5 (Riff1, drums, +Bass riff1)
    (I will follow)
    e5 a5 D5 (Riff1, drums, +Bass riff1)
    e5 C5 (Riff1, drums, +Bass riff1)
    e5 a5 D5 (Riff1, drums, +Bass riff1)
    Riff3 (Bridge Harmonics)
    Eb-------------------------------5--------------7--------|
    Bb-12---------------7------------5--------------7--------|
    Gb-12---------------7------------5--------------7--------|
    Db-12---------------7------------5--------------7--------|
    Ab-12----------------------------------------------------|
    Eb-12----------------------------------------------------|
    Bass riff2 (Bridge)
    Gb---------------------------------------------------
    Db-2-------------------------------------------------
    Ab-----5-5---------5-5----------5-5---------5-5------
    Eb---7-----7-0---7-----7-0----3-----3-0---3-----3-0--
    [Bridge]
    Bass riff2 (&Riff3)
    Bass riff2 (&Riff3)
    Bass riff2 (&Riff3)
    Your___ eyes______ make__ a_ circle__
    Bass riff2 (&Riff3)
    I__ see__ you_ when I go_ in_ there____
    Bass riff2 (&Riff1 palm mute)
    Your_____ eyes_______
    Bass riff2 (&Riff1 open)
    Yeah Your_____ eyes_______
    Bass riff2 (&Riff1 open)
    Your_____ eyes_______ Yeah yeah yeah
    Bass riff2 (&Riff1 open)
    Your_ your_ your___ eyes__________
    e5 C5 (Riff1, drums, +Bass riff1)
    ________
    e5 a5 D5 (Riff1, drums, +Bass riff1)
    e5 C5 (Riff1, drums, +Bass riff1)
    e5 a5 D5 (Riff1, drums, +Bass riff1)
    [Repeat Chorus1]
    [Outro]
    E5 A5
    I_ will_ fol_low__ (4x)
    e5 C5 (Riff1, drums, +Bass riff1)
    e5 a5 D5 (Riff1, drums, +Bass riff1)
    e5 C5 (Riff1, drums, +Bass riff1)
     

    Visualizações mensais: 188

top 50 músicas

Todas as letras e cifras são propriedade dos seus respectivos autores.
É permitido somente a visualização na tela das letras de música encontradas no Letras de Músicas,
vedada sua reprodução através de qualquer outros meios. (Lei 9610/98)
All lyrics are property and copyright of their owners. All lyrics provided for educational purposes only.