New Year's Day ( cifra ) - U2 Letras de músicas - Letra da música New Year's Day ( cifra )

Utilize o abecedário abaixo para abrir as páginas de letras dos artistas

0-9ABCDEFGHIJKLMNOPQRSTUVWXYZ

New Year's Day ( cifra ) letra

     New Year's Day ( cifra )

    >> Todas as letras de "U2"
     New Year's Day ( cifra )
    >> U2
     
        Tom: Am
    Intro: (Riff1a 2x, Riff1b)
    Am C Em Em (bass riff1)
    Yeah___eah!
    Am C G
    F Am
    G F
    Am C Em Em
    Bass riff1 (intro)
    G----------------------------------------------
    D-----------------2----------5----------5------
    A--0-0-3-0----3-3---3----7-7---7----7-7---7----
    E----------------------------------------------
    Am C Em Em
    Riff1a (Piano intro)
    e--------------10--12-----8--10--7--------
    A----------10-----------------------------
    G-----------------------------------------
    D-----------------------------------------
    B--12-------------------------------------
    E-----------------------------------------
    Am C
    Riff1b (Piano intro)
    e--8-7-7--7-8-10--12-10-8-8-7-8-5--10-7--7--8--10----
    A----------------------------------------------------
    G----------------------------------------------------
    D----------------------------------------------------
    B----------------------------------------------------
    E----------------------------------------------------
    F Am G F
    [Verse]
    Am C Em
    All_ is quiet__ on New Year's Day__
    Am C Em
    A world in white__, gets underway__
    Am C Em
    And I want to be_ with you, be_ with you night_ and day__
    Am C Em
    Nothing changes_ on New Year's Day__
    Am C Em
    On_ New Year's Day__
    [Chorus1]
    G Am
    I______ will_ be__ with you__ again___
    G F
    I______ will_ be__ with you__ a__gain___
    Am C Em Em
    [Verse]
    Am C Em
    Under a blood red__ sky___
    Am C Em
    A crowd has gathered__ in black_ and white__
    Am C Em
    Arms entwined__, the chosen_ few___
    Am C Em
    Newspaper says__, says__, SAY IT'S
    G / / / Am
    TRUE__, IT'S_ TRUE___ And we can BREAK__ through___
    G F
    Though TORN__ in two___, we can be__ one____
    [Chorus2]
    G Am
    I______ I_ will_ be__gin__ again___
    G F
    I______ I_ will_ be__gin__ a__gain___

    [Repeat Intro] (Riff1a 2x, Riff1b)
    Am C Em Em (bass riff1)
    Am C G
    F Am
    G F
    Am C Em Em (Solo1)
    Am C Em Em (Solo1)
    Am C Em Em (Solo2)
    Am C Em Em
    Solo1
    e--19-19-15--17--12--15--10--12--7~~~--
    A--------------------------------------
    G--------------------------------------
    D--------------------------------------
    B--------------------------------------
    E--------------------------------------
    Solo2
    e------------------------------------------------------------------------
    B------------------------------------------------------------------------
    G---------------------------------------5-5-4----5-4---5-4-4-5-7-4-4-44--
    D-------5------5--7----------------5----------5--------------------------
    A-5--7------7--------5--7--------7---7---------------7-------------------
    E--------------------------5--7------------------------------------------
    Am C Em Em
    Ah aah ah aah ah aah
    [Chorus3]
    G Am
    I______ will_ be__ with you__ again___
    G F
    I______ will_ be__ with you__ a__gain___
    G Am
    I______ will_ be__ with you__ again___
    G F
    I______ will_ be__ with you__ a__gain___
    G Am
    I______ will_ be__ with you__ again___
    G F
    I______ will_ be__ with you__ a__gain___
    Fade out..
    e5 !!
     

    Visualizações mensais: 107

top 50 músicas

Todas as letras e cifras são propriedade dos seus respectivos autores.
É permitido somente a visualização na tela das letras de música encontradas no Letras de Músicas,
vedada sua reprodução através de qualquer outros meios. (Lei 9610/98)
All lyrics are property and copyright of their owners. All lyrics provided for educational purposes only.