Where The Streets Have No Name ( cifra ) - U2 Letras de músicas - Letra da música Where The Streets Have No Name ( cifra )

Utilize o abecedário abaixo para abrir as páginas de letras dos artistas

0-9ABCDEFGHIJKLMNOPQRSTUVWXYZ

Where The Streets Have No Name ( cifra ) letra

     Where The Streets Have No Name ( cifra )

    >> Todas as letras de "U2"
     Where The Streets Have No Name ( cifra )
    >> U2
     
        Tom :D
    Intro: Dsus4 D D/C# F#m/G B/G
    D D/C# F#m/G B/G (&Lead1a)
    Bm A (&Lead1a)
    D (&Lead1b)
    Riff1 Intro (organ)
    e-3~~~---2~~~---9~---5~~---7~~~~~~---
    B-3------3-----------7-----7---------
    G-2------2-----------0-----0---------
    D-0------0------0--------------------
    A------------------------------------
    E------------------------------------
    Dsus4 D D/C# F#m/G B/G
    e-10~~~~~~~~~---9~---5~~---7~~~~~~---
    B-10-----------------7-----7---------
    G-11-----------------0-----0---------
    D-0-------------0--------------------
    A------------------------------------
    E------------------------------------
    D D/C# F#m/G B/G
    e-7---------------------5--------------------5--------------------
    B-7---------------------5--------------------7--------------------
    G-7---------------------6--------------------7--------------------
    D-9---------------------7--------------------7--------------------
    A-9---------------------7--------------------5--------------------
    E-7---------------------5-----------------------------------------
    Bm A D
    Lead1a (Intro lead fast)
    e-10-----------------
    B----10----------10--
    G-------12-11-12-----
    D--------------------
    A-------------------- 8x
    E--------------------
    Lead1b (Intro lead fast)
    e-------10-------10--
    B----10-------10-----
    G-12-------12--------
    D--------------------
    A-------------------- 2x
    E--------------------
    Lead1c (Fast strum with echo)
    E---10--10--10--10--10--10-
    B---10--10--10--10--10--10-
    G---11--11--11--11--11--11-
    D--------------------------
    A--------------------------
    E--------------------------
    Lead1d
    e-10-------10-------------
    B----10-------10-------10-
    G-------11-------11-12----
    D-------------------------
    A-------------------------
    E-------------------------
    D G (&Lead1c/Lead1d)
    D G
    Bm A
    Cadd9 Cadd9
    D
    I_ wanna_ run___, I__ want to hide__
    D G
    I_ wanna_ tear__ down__ the walls__ that hold__ me inside__
    Bm A
    I want to reach__ out___ And touch_ the flame__
    Cadd9 Cadd9
    Where_ the streets have no_ name__ ah ah aaah
    D
    I_ wanna_ feel___, sun_light__ on_ my_ face_
    D G
    I see that dust_ cloud__ disappear_ without a trace__
    Bm A
    I wanna_ take_ shel_ter___ from the poison rain__
    Cadd9 Cadd9
    Where_ the streets have no_ name__ oooooooooh aah
    [Chorus]
    D
    Where_ the_ streets_ have_ no_ name___
    D
    Where_ the_ streets_ have_ no__ name___
    G
    We're still buil_ding__ then BURN_ING_ down__ love_ BURN_ING_ down__ love_
    Bm A
    And__ when_ I__ go_ there__, I go there with__ you___
    D
    It's all_ I can do___
    D
    The_ city's_ a flood___ And our_ love turns to_ rust__
    D G
    We're beaten and blown__ by_ the_ wind__, trampled_ in dust__
    Bm A
    I'll show you a place___ high_ on the desert_ plain__ (yeah)
    Cadd9 Cadd9
    Where_ the streets have no_ name__ oooooh aaaah
    [Chorus2]
    D
    Where_ the_ streets_ have_ no_ name___
    D
    Where_ the_ streets_ have_ no__ name___
    G
    We're still buil_ding__ then BURN_ING_ down__ love_ BURN_ING_ down__ love_
    Bm A
    And__ when_ I__ go_ there__, I go there with__ you___
    D
    It's all_ I can do___ Our_ love_ turns to rust__
    G
    We're beaten and blown__ by_ the_ wind__, blown__ by_ the_ wind__
    D
    oh__ and I see love__ See our love_ turn to rust__
    G
    And we're beaten and blown__ by the wi__i__ind, blown___ by the wind__
    Bm A
    oh__ when I go_ there__ I go there with you__
    D (&Lead1)
    It's all_ I can do___
     

    Visualizações mensais: 158

top 50 músicas

Todas as letras e cifras são propriedade dos seus respectivos autores.
É permitido somente a visualização na tela das letras de música encontradas no Letras de Músicas,
vedada sua reprodução através de qualquer outros meios. (Lei 9610/98)
All lyrics are property and copyright of their owners. All lyrics provided for educational purposes only.